  0
SECTION
  2
HEADER
  9
$ACADVER
  1
AC1015
  9
$ACADMAINTVER
 70
     6
  9
$DWGCODEPAGE
  3
ANSI_1252
  9
$INSBASE
 10
0.0
 20
0.0
 30
0.0
  9
$EXTMIN
 10
-26.1822644902
 20
-12.7470605723
 30
0.0
  9
$EXTMAX
 10
0.0
 20
14.6
 30
0.0
  9
$LIMMIN
 10
0.0
 20
0.0
  9
$LIMMAX
 10
420.0
 20
297.0
  9
$ORTHOMODE
 70
     0
  9
$REGENMODE
 70
     1
  9
$FILLMODE
 70
     1
  9
$QTEXTMODE
 70
     0
  9
$MIRRTEXT
 70
     1
  9
$LTSCALE
 40
1.0
  9
$ATTMODE
 70
     1
  9
$TEXTSIZE
 40
3.5
  9
$TRACEWID
 40
1.0
  9
$TEXTSTYLE
  7
Standard
  9
$CLAYER
  8
0
  9
$CELTYPE
  6
ByLayer
  9
$CECOLOR
 62
   256
  9
$CELTSCALE
 40
1.0
  9
$DISPSILH
 70
     0
  9
$DIMSCALE
 40
1.0
  9
$DIMASZ
 40
3.302
  9
$DIMEXO
 40
1.0
  9
$DIMDLI
 40
3.75
  9
$DIMRND
 40
0.0
  9
$DIMDLE
 40
0.0
  9
$DIMEXE
 40
1.0
  9
$DIMTP
 40
0.0
  9
$DIMTM
 40
0.0
  9
$DIMTXT
 40
3.5
  9
$DIMCEN
 40
2.5
  9
$DIMTSZ
 40
0.0
  9
$DIMTOL
 70
     0
  9
$DIMLIM
 70
     0
  9
$DIMTIH
 70
     1
  9
$DIMTOH
 70
     1
  9
$DIMSE1
 70
     0
  9
$DIMSE2
 70
     0
  9
$DIMTAD
 70
     1
  9
$DIMZIN
 70
     1
  9
$DIMBLK
  1

  9
$DIMASO
 70
     1
  9
$DIMSHO
 70
     1
  9
$DIMPOST
  1

  9
$DIMAPOST
  1

  9
$DIMALT
 70
     0
  9
$DIMALTD
 70
     3
  9
$DIMALTF
 40
0.0393700787
  9
$DIMLFAC
 40
1.0
  9
$DIMTOFL
 70
     1
  9
$DIMTVP
 40
0.0
  9
$DIMTIX
 70
     0
  9
$DIMSOXD
 70
     0
  9
$DIMSAH
 70
     0
  9
$DIMBLK1
  1

  9
$DIMBLK2
  1

  9
$DIMSTYLE
  2
ISO-25
  9
$DIMCLRD
 70
     0
  9
$DIMCLRE
 70
     0
  9
$DIMCLRT
 70
     0
  9
$DIMTFAC
 40
1.0
  9
$DIMGAP
 40
1.524
  9
$DIMJUST
 70
     0
  9
$DIMSD1
 70
     0
  9
$DIMSD2
 70
     0
  9
$DIMTOLJ
 70
     0
  9
$DIMTZIN
 70
     1
  9
$DIMALTZ
 70
     0
  9
$DIMALTTZ
 70
     0
  9
$DIMUPT
 70
     0
  9
$DIMDEC
 70
     2
  9
$DIMTDEC
 70
     2
  9
$DIMALTU
 70
     2
  9
$DIMALTTD
 70
     3
  9
$DIMTXSTY
  7
Standard
  9
$DIMAUNIT
 70
     0
  9
$DIMADEC
 70
     2
  9
$DIMALTRND
 40
0.0
  9
$DIMAZIN
 70
     0
  9
$DIMDSEP
 70
    44
  9
$DIMATFIT
 70
     3
  9
$DIMFRAC
 70
     0
  9
$DIMLDRBLK
  1

  9
$DIMLUNIT
 70
     2
  9
$DIMLWD
 70
    -2
  9
$DIMLWE
 70
    -2
  9
$DIMTMOVE
 70
     0
  9
$LUNITS
 70
     2
  9
$LUPREC
 70
     2
  9
$SKETCHINC
 40
1.0
  9
$FILLETRAD
 40
10.0
  9
$AUNITS
 70
     0
  9
$AUPREC
 70
     2
  9
$MENU
  1
.
  9
$ELEVATION
 40
0.0
  9
$PELEVATION
 40
0.0
  9
$THICKNESS
 40
0.0
  9
$LIMCHECK
 70
     0
  9
$CHAMFERA
 40
0.0
  9
$CHAMFERB
 40
0.0
  9
$CHAMFERC
 40
0.0
  9
$CHAMFERD
 40
0.0
  9
$SKPOLY
 70
     0
  9
$TDCREATE
 40
2458862.402391042
  9
$TDUCREATE
 40
2458862.402391042
  9
$TDUPDATE
 40
2458862.40241206
  9
$TDUUPDATE
 40
2458862.40241206
  9
$TDINDWG
 40
0.0000000116
  9
$TDUSRTIMER
 40
0.0000000116
  9
$USRTIMER
 70
     1
  9
$ANGBASE
 50
0.0
  9
$ANGDIR
 70
     0
  9
$PDMODE
 70
     0
  9
$PDSIZE
 40
-1.0
  9
$PLINEWID
 40
0.0
  9
$SPLFRAME
 70
     0
  9
$SPLINETYPE
 70
     6
  9
$SPLINESEGS
 70
     8
  9
$HANDSEED
  5
38F
  9
$SURFTAB1
 70
     6
  9
$SURFTAB2
 70
     6
  9
$SURFTYPE
 70
     6
  9
$SURFU
 70
     6
  9
$SURFV
 70
     6
  9
$UCSBASE
  2

  9
$UCSNAME
  2

  9
$UCSORG
 10
0.0
 20
0.0
 30
0.0
  9
$UCSXDIR
 10
1.0
 20
0.0
 30
0.0
  9
$UCSYDIR
 10
0.0
 20
1.0
 30
0.0
  9
$UCSORTHOREF
  2

  9
$UCSORTHOVIEW
 70
     0
  9
$UCSORGTOP
 10
0.0
 20
0.0
 30
0.0
  9
$UCSORGBOTTOM
 10
0.0
 20
0.0
 30
0.0
  9
$UCSORGLEFT
 10
0.0
 20
0.0
 30
0.0
  9
$UCSORGRIGHT
 10
0.0
 20
0.0
 30
0.0
  9
$UCSORGFRONT
 10
0.0
 20
0.0
 30
0.0
  9
$UCSORGBACK
 10
0.0
 20
0.0
 30
0.0
  9
$PUCSBASE
  2

  9
$PUCSNAME
  2

  9
$PUCSORG
 10
0.0
 20
0.0
 30
0.0
  9
$PUCSXDIR
 10
1.0
 20
0.0
 30
0.0
  9
$PUCSYDIR
 10
0.0
 20
1.0
 30
0.0
  9
$PUCSORTHOREF
  2

  9
$PUCSORTHOVIEW
 70
     0
  9
$PUCSORGTOP
 10
0.0
 20
0.0
 30
0.0
  9
$PUCSORGBOTTOM
 10
0.0
 20
0.0
 30
0.0
  9
$PUCSORGLEFT
 10
0.0
 20
0.0
 30
0.0
  9
$PUCSORGRIGHT
 10
0.0
 20
0.0
 30
0.0
  9
$PUCSORGFRONT
 10
0.0
 20
0.0
 30
0.0
  9
$PUCSORGBACK
 10
0.0
 20
0.0
 30
0.0
  9
$USERI1
 70
     0
  9
$USERI2
 70
     0
  9
$USERI3
 70
     0
  9
$USERI4
 70
     0
  9
$USERI5
 70
     0
  9
$USERR1
 40
0.0
  9
$USERR2
 40
0.0
  9
$USERR3
 40
0.0
  9
$USERR4
 40
0.0
  9
$USERR5
 40
0.0
  9
$WORLDVIEW
 70
     1
  9
$SHADEDGE
 70
     3
  9
$SHADEDIF
 70
    70
  9
$TILEMODE
 70
     1
  9
$MAXACTVP
 70
    64
  9
$PINSBASE
 10
0.0
 20
0.0
 30
0.0
  9
$PLIMCHECK
 70
     0
  9
$PEXTMIN
 10
-109.9588068676
 20
-26.1826274553
 30
0.0
  9
$PEXTMAX
 10
109.9587962153
 20
0.0
 30
0.0
  9
$PLIMMIN
 10
-127.0730172243
 20
-32.600456339
  9
$PLIMMAX
 10
127.0730065719
 20
147.0987524058
  9
$UNITMODE
 70
     0
  9
$VISRETAIN
 70
     1
  9
$PLINEGEN
 70
     0
  9
$PSLTSCALE
 70
     1
  9
$TREEDEPTH
 70
  3020
  9
$CMLSTYLE
  2
Standard
  9
$CMLJUST
 70
     0
  9
$CMLSCALE
 40
20.0
  9
$PROXYGRAPHICS
 70
     1
  9
$MEASUREMENT
 70
     1
  9
$CELWEIGHT
370
    -1
  9
$ENDCAPS
280
     0
  9
$JOINSTYLE
280
     0
  9
$LWDISPLAY
290
     1
  9
$INSUNITS
 70
     4
  9
$HYPERLINKBASE
  1

  9
$STYLESHEET
  1

  9
$XEDIT
290
     1
  9
$CEPSNTYPE
380
     0
  9
$PSTYLEMODE
290
     1
  9
$FINGERPRINTGUID
  2
{a4833f86-ccd9-405f-9678-5fa4dd793ab4}
  9
$VERSIONGUID
  2
{FAEB1C32-E019-11D5-929B-00C0DF256EC4}
  9
$EXTNAMES
290
     1
  9
$PSVPSCALE
 40
0.0
  9
$OLESTARTUP
290
     0
  0
ENDSEC
  0
SECTION
  2
CLASSES
  0
CLASS
  1
ACDBDICTIONARYWDFLT
  2
AcDbDictionaryWithDefault
  3
ObjectDBX Classes
 90
        0
280
     0
281
     0
  0
CLASS
  1
VISUALSTYLE
  2
AcDbVisualStyle
  3
ObjectDBX Classes
 90
     4095
280
     0
281
     0
  0
CLASS
  1
MATERIAL
  2
AcDbMaterial
  3
ObjectDBX Classes
 90
     1153
280
     0
281
     0
  0
CLASS
  1
SCALE
  2
AcDbScale
  3
ObjectDBX Classes
 90
     1153
280
     0
281
     0
  0
CLASS
  1
TABLESTYLE
  2
AcDbTableStyle
  3
ObjectDBX Classes
 90
     4095
280
     0
281
     0
  0
CLASS
  1
MLEADERSTYLE
  2
AcDbMLeaderStyle
  3
ACDB_MLEADERSTYLE_CLASS
 90
     4095
280
     0
281
     0
  0
CLASS
  1
SUN
  2
AcDbSun
  3
SCENEOE
 90
     1153
280
     0
281
     0
  0
CLASS
  1
ACDBPLACEHOLDER
  2
AcDbPlaceHolder
  3
ObjectDBX Classes
 90
        0
280
     0
281
     0
  0
CLASS
  1
LAYOUT
  2
AcDbLayout
  3
ObjectDBX Classes
 90
        0
280
     0
281
     0
  0
ENDSEC
  0
SECTION
  2
TABLES
  0
TABLE
  2
VPORT
  5
8
330
0
100
AcDbSymbolTable
 70
     1
  0
VPORT
  5
29
330
8
100
AcDbSymbolTableRecord
100
AcDbViewportTableRecord
  2
*Active
 70
     0
 10
0.0
 20
0.0
 11
1.0
 21
1.0
 12
-13.0911322451
 22
0.9264697138
 13
0.0
 23
0.0
 14
10.0
 24
10.0
 15
10.0
 25
10.0
 16
0.0
 26
0.0
 36
1.0
 17
0.0
 27
0.0
 37
0.0
 40
27.8940017838
 41
0.9574069001
 42
50.0
 43
0.0
 44
0.0
 50
0.0
 51
0.0
 71
     0
 72
   100
 73
     1
 74
     3
 75
     0
 76
     0
 77
     0
 78
     0
281
     0
 65
     1
110
0.0
120
0.0
130
0.0
111
1.0
121
0.0
131
0.0
112
0.0
122
1.0
132
0.0
 79
     0
146
0.0
  0
ENDTAB
  0
TABLE
  2
LTYPE
  5
5
330
0
100
AcDbSymbolTable
 70
     6
  0
LTYPE
  5
14
330
5
100
AcDbSymbolTableRecord
100
AcDbLinetypeTableRecord
  2
ByBlock
 70
     0
  3

 72
    65
 73
     0
 40
0.0
  0
LTYPE
  5
15
330
5
100
AcDbSymbolTableRecord
100
AcDbLinetypeTableRecord
  2
ByLayer
 70
     0
  3

 72
    65
 73
     0
 40
0.0
  0
LTYPE
  5
16
330
5
100
AcDbSymbolTableRecord
100
AcDbLinetypeTableRecord
  2
Continuous
 70
     0
  3
Solid line
 72
    65
 73
     0
 40
0.0
  0
LTYPE
  5
6E
330
5
100
AcDbSymbolTableRecord
100
AcDbLinetypeTableRecord
  2
HIDDEN
 70
     0
  3
Hidden __ __ __ __ __ __ __ __ __ __ __ __ __ __
 72
    65
 73
     2
 40
1.905
 49
1.27
 74
     0
 49
-0.635
 74
     0
  0
LTYPE
  5
6F
330
5
100
AcDbSymbolTableRecord
100
AcDbLinetypeTableRecord
  2
PHANTOM
 70
     0
  3
Phantom ______  __  __  ______  __  __  ______
 72
    65
 73
     6
 40
12.7
 49
6.35
 74
     0
 49
-1.27
 74
     0
 49
1.27
 74
     0
 49
-1.27
 74
     0
 49
1.27
 74
     0
 49
-1.27
 74
     0
  0
LTYPE
  5
70
330
5
100
AcDbSymbolTableRecord
100
AcDbLinetypeTableRecord
  2
CENTER
 70
     0
  3
Center ____ _ ____ _ ____ _ ____ _ ____ _ ____
 72
    65
 73
     4
 40
10.16
 49
6.35
 74
     0
 49
-1.27
 74
     0
 49
1.27
 74
     0
 49
-1.27
 74
     0
  0
LTYPE
  5
71
330
5
100
AcDbSymbolTableRecord
100
AcDbLinetypeTableRecord
  2
CENTERX2
 70
     0
  3
Center (2x) ________  __  ________  __  _____
 72
    65
 73
     4
 40
20.32
 49
12.7
 74
     0
 49
-2.54
 74
     0
 49
2.54
 74
     0
 49
-2.54
 74
     0
  0
LTYPE
  5
72
330
5
100
AcDbSymbolTableRecord
100
AcDbLinetypeTableRecord
  2
DOT2
 70
     0
  3
Dot (.5x) ........................................
 72
    65
 73
     2
 40
0.635
 49
0.0
 74
     0
 49
-0.635
 74
     0
  0
ENDTAB
  0
TABLE
  2
LAYER
  5
2
330
0
100
AcDbSymbolTable
 70
     1
  0
LAYER
  5
10
330
2
100
AcDbSymbolTableRecord
100
AcDbLayerTableRecord
  2
0
 70
     0
 62
     7
  6
Continuous
370
    -3
390
F
  0
ENDTAB
  0
TABLE
  2
STYLE
  5
3
330
0
100
AcDbSymbolTable
 70
     1
  0
STYLE
  5
11
330
3
100
AcDbSymbolTableRecord
100
AcDbTextStyleTableRecord
  2
Standard
 70
     0
 40
0.0
 41
1.0
 50
0.0
 71
     0
 42
3.5
  3
txt
  4

  0
ENDTAB
  0
TABLE
  2
VIEW
  5
6
330
0
100
AcDbSymbolTable
 70
     0
  0
ENDTAB
  0
TABLE
  2
UCS
  5
7
330
0
100
AcDbSymbolTable
 70
     0
  0
ENDTAB
  0
TABLE
  2
APPID
  5
9
330
0
100
AcDbSymbolTable
 70
     1
  0
APPID
  5
12
330
9
100
AcDbSymbolTableRecord
100
AcDbRegAppTableRecord
  2
ACAD
 70
     0
  0
ENDTAB
  0
TABLE
  2
DIMSTYLE
  5
A
330
0
100
AcDbSymbolTable
 70
     1
100
AcDbDimStyleTable
  0
DIMSTYLE
105
27
330
A
100
AcDbSymbolTableRecord
100
AcDbDimStyleTableRecord
  2
ISO-25
 70
     0
 41
2.5
 42
0.625
 43
3.75
 44
1.25
 73
     0
 74
     0
 77
     1
 78
     8
140
2.5
141
2.5
143
0.0393700787
147
0.625
171
     3
172
     1
178
     0
271
     2
272
     2
274
     3
278
    44
283
     0
284
     8
340
11
  0
ENDTAB
  0
TABLE
  2
BLOCK_RECORD
  5
1
330
0
100
AcDbSymbolTable
 70
     7
  0
BLOCK_RECORD
  5
1F
330
1
100
AcDbSymbolTableRecord
100
AcDbBlockTableRecord
  2
*Model_Space
340
22
  0
BLOCK_RECORD
  5
1B
330
1
100
AcDbSymbolTableRecord
100
AcDbBlockTableRecord
  2
*Paper_Space
340
1E
  0
BLOCK_RECORD
  5
23
330
1
100
AcDbSymbolTableRecord
100
AcDbBlockTableRecord
  2
*Paper_Space0
340
26
  0
BLOCK_RECORD
  5
FD
330
1
100
AcDbSymbolTableRecord
100
AcDbBlockTableRecord
  2
*Paper_Space1
340
FE
  0
BLOCK_RECORD
  5
193
330
1
100
AcDbSymbolTableRecord
100
AcDbBlockTableRecord
  2
*Paper_Space2
340
194
  0
BLOCK_RECORD
  5
1CB
330
1
100
AcDbSymbolTableRecord
100
AcDbBlockTableRecord
  2
*Paper_Space3
340
1CC
  0
BLOCK_RECORD
  5
250
330
1
100
AcDbSymbolTableRecord
100
AcDbBlockTableRecord
  2
*Paper_Space4
340
251
  0
BLOCK_RECORD
  5
2A6
330
1
100
AcDbSymbolTableRecord
100
AcDbBlockTableRecord
  2
*Paper_Space5
340
2A7
  0
BLOCK_RECORD
  5
30C
330
1
100
AcDbSymbolTableRecord
100
AcDbBlockTableRecord
  2
*Paper_Space6
340
30D
  0
ENDTAB
  0
ENDSEC
  0
SECTION
  2
BLOCKS
  0
BLOCK
  5
20
330
1F
100
AcDbEntity
  8
0
100
AcDbBlockBegin
  2
*Model_Space
 70
     0
 10
0.0
 20
0.0
 30
0.0
  3
*Model_Space
  1

  0
ENDBLK
  5
21
330
1F
100
AcDbEntity
  8
0
100
AcDbBlockEnd
  0
BLOCK
  5
1C
330
1B
100
AcDbEntity
 67
     1
  8
0
100
AcDbBlockBegin
  2
*Paper_Space
 70
     0
 10
0.0
 20
0.0
 30
0.0
  3
*Paper_Space
  1

  0
ENDBLK
  5
1D
330
1B
100
AcDbEntity
 67
     1
  8
0
100
AcDbBlockEnd
  0
BLOCK
  5
24
330
23
100
AcDbEntity
  8
0
100
AcDbBlockBegin
  2
*Paper_Space0
 70
     0
 10
0.0
 20
0.0
 30
0.0
  3
*Paper_Space0
  1

  0
SPLINE
  5
CC
330
23
100
AcDbEntity
  8
0
  6
Continuous
 62
     7
370
    25
100
AcDbSpline
210
0.0
220
0.0
230
1.0
 70
     8
 71
     3
 72
    11
 73
     7
 74
     0
 42
0.000000001
 43
0.00000001
 40
0.0
 40
0.0
 40
0.0
 40
0.0
 40
0.0644374561797676
 40
0.470931107564347
 40
0.8154053887431799
 40
0.9999999999999999
 40
0.9999999999999999
 40
0.9999999999999999
 40
0.9999999999999999
 10
-74.10999852346409
 20
-12.31421875760154
 30
0.0
 10
-74.04365809871516
 20
-12.33190903635805
 30
0.0
 10
-73.55881944189198
 20
-12.46119568207366
 30
0.0
 10
-72.71563319637792
 20
-12.61648568743866
 30
0.0
 10
-71.75342806668522
 20
-12.73600020799652
 30
0.0
 10
-71.2237441813188
 20
-12.74164131149697
 30
0.0
 10
-71.03893499615188
 20
-12.74360951889418
 30
0.0
  0
SPLINE
  5
CF
330
23
100
AcDbEntity
  8
0
  6
Continuous
 62
     7
370
    25
100
AcDbSpline
210
0.0
220
0.0
230
1.0
 70
     8
 71
     3
 72
    11
 73
     7
 74
     0
 42
0.000000001
 43
0.00000001
 40
0.0
 40
0.0
 40
0.0
 40
0.0
 40
0.141739713248069
 40
0.4153993179252891
 40
0.8055553206742753
 40
1.0
 40
1.0
 40
1.0
 40
1.0
 10
71.02100471362958
 20
-12.74081589257218
 30
0.0
 10
71.1500658737638
 20
-12.74244832658739
 30
0.0
 10
71.52830791095892
 20
-12.74723253251625
 30
0.0
 10
72.28394027105614
 20
-12.67126729244965
 30
0.0
 10
73.09450838700356
 20
-12.55902939665169
 30
0.0
 10
73.64679762805011
 20
-12.41832648452431
 30
0.0
 10
73.83049516324496
 20
-12.37152713333008
 30
0.0
  0
SPLINE
  5
D0
330
23
100
AcDbEntity
  8
0
  6
Continuous
 62
     7
370
    25
100
AcDbSpline
210
0.0
220
0.0
230
1.0
 70
     8
 71
     3
 72
    12
 73
     8
 74
     0
 42
0.000000001
 43
0.00000001
 40
0.0
 40
0.0
 40
0.0
 40
0.0
 40
0.25
 40
0.25
 40
0.5
 40
0.5
 40
1.0
 40
1.0
 40
1.0
 40
1.0
 10
105.6000585511047
 20
0.0
 30
0.0
 10
105.6322268897588
 20
-0.0000000000000056
 30
0.0
 10
105.6610277991601
 20
0.017083535670658
 30
0.0
 10
105.7102045180941
 20
0.0573071591295476
 30
0.0
 10
105.730837919334
 20
0.0810272032124545
 30
0.0
 10
105.7872583149285
 20
0.1571867361716029
 30
0.0
 10
105.8162318472239
 20
0.2132770908637542
 30
0.0
 10
105.8399543518194
 20
0.2718490011180967
 30
0.0
  0
SPLINE
  5
D1
330
23
100
AcDbEntity
  8
0
  6
Continuous
 62
     7
370
    25
100
AcDbSpline
210
0.0
220
0.0
230
1.0
 70
     8
 71
     3
 72
    12
 73
     8
 74
     0
 42
0.000000001
 43
0.00000001
 40
0.0
 40
0.0
 40
0.0
 40
0.0
 40
0.4999999999999674
 40
0.4999999999999674
 40
0.7499999999999837
 40
0.7499999999999837
 40
1.0
 40
1.0
 40
1.0
 40
1.0
 10
-105.8399543518193
 20
0.2718490011180801
 30
0.0
 10
-105.8162229323418
 20
0.2132550796266797
 30
0.0
 10
-105.787436626174
 20
0.1574854705034388
 30
0.0
 10
-105.7310110294775
 20
0.0812320594737779
 30
0.0
 10
-105.709924247506
 20
0.0570459577095509
 30
0.0
 10
-105.6609903853244
 20
0.0170850983118598
 30
0.0
 10
-105.6322919134979
 20
-0.0000000000011232
 30
0.0
 10
-105.6000585511033
 20
0.0000000000031713
 30
0.0
  0
SPLINE
  5
D5
330
23
100
AcDbEntity
  8
0
  6
Continuous
 62
     7
370
    25
100
AcDbSpline
210
0.0
220
0.0
230
1.0
 70
     8
 71
     3
 72
    10
 73
     6
 74
     0
 42
0.000000001
 43
0.00000001
 40
0.0
 40
0.0
 40
0.0
 40
0.0
 40
0.5
 40
0.5
 40
1.0
 40
1.0
 40
1.0
 40
1.0
 10
-109.7561484150619
 20
14.6
 30
0.0
 10
-109.8155840664931
 20
14.6
 30
0.0
 10
-109.873654384288
 20
14.57308380224897
 30
0.0
 10
-109.9495154865062
 20
14.48376472356068
 30
0.0
 10
-109.9665592887139
 20
14.42161346407491
 30
0.0
 10
-109.9554847021401
 20
14.36319446847651
 30
0.0
  0
SPLINE
  5
D7
330
23
100
AcDbEntity
  8
0
  6
Continuous
 62
     7
370
    25
100
AcDbSpline
210
0.0
220
0.0
230
1.0
 70
     8
 71
     3
 72
    10
 73
     6
 74
     0
 42
0.000000001
 43
0.00000001
 40
0.0
 40
0.0
 40
0.0
 40
0.0
 40
0.5
 40
0.5
 40
1.0
 40
1.0
 40
1.0
 40
1.0
 10
109.9554847021401
 20
14.36319446847651
 30
0.0
 10
109.9665546261556
 20
14.42158886884757
 30
0.0
 10
109.9496502538174
 20
14.4835174975888
 30
0.0
 10
109.873772990132
 20
14.57303241091517
 30
0.0
 10
109.8155604990051
 20
14.6000000000044
 30
0.0
 10
109.7561484150623
 20
14.60000000000451
 30
0.0
  0
CIRCLE
  5
D8
330
23
100
AcDbEntity
  8
0
  6
Continuous
 62
     7
370
    25
100
AcDbCircle
 10
-80.0
 20
6.0
 30
0.0
 40
2.499999999999972
  0
CIRCLE
  5
D9
330
23
100
AcDbEntity
  8
0
  6
Continuous
 62
     7
370
    25
100
AcDbCircle
 10
80.0
 20
6.0
 30
0.0
 40
2.499999999999986
  0
LWPOLYLINE
  5
DC
330
23
100
AcDbEntity
  8
0
  6
Continuous
 62
     7
370
    25
100
AcDbPolyline
 90
        9
 70
   128
 43
0.0
 10
88.0
 20
-7.6151952284
 10
87.99811589
 20
-7.6385430026
 10
87.9925359654
 20
-7.6559767649
 10
87.9834746595
 20
-7.6668265456
 10
87.9712801932
 20
-7.6706753939
 10
87.9564211931
 20
-7.6673754005
 10
87.9394686821
 20
-7.6570533824
 10
87.9210741357
 20
-7.640106009
 10
87.9019444462
 20
-7.6171845583
  0
LWPOLYLINE
  5
E1
330
23
100
AcDbEntity
  8
0
  6
Continuous
 62
     7
370
    25
100
AcDbPolyline
 90
        9
 70
   128
 43
0.0
 10
-87.9019444462
 20
-7.6171845583
 10
-87.9210741357
 20
-7.640106009
 10
-87.9394686821
 20
-7.6570533824
 10
-87.9564211931
 20
-7.6673754005
 10
-87.9712801932
 20
-7.6706753939
 10
-87.9834746595
 20
-7.6668265456
 10
-87.9925359654
 20
-7.6559767649
 10
-87.99811589
 20
-7.6385430026
 10
-88.0
 20
-7.6151952284
  0
LWPOLYLINE
  5
E4
330
23
100
AcDbEntity
  8
0
  6
Continuous
 62
     7
370
    25
100
AcDbPolyline
 90
        5
 70
   128
 43
0.0
 10
74.1718629313
 20
-12.3013721927
 10
74.1736057258
 20
-12.3001096901
 10
74.179593914
 20
-12.2902909564
 10
74.1832814221
 20
-12.2734921097
 10
74.1845265413
 20
-12.2503587203
  0
LWPOLYLINE
  5
E5
330
23
100
AcDbEntity
  8
0
  6
Continuous
 62
     7
370
    25
100
AcDbPolyline
 90
        9
 70
   128
 43
0.0
 10
-74.1845265413
 20
-12.2503587203
 10
-74.1832814221
 20
-12.2734921097
 10
-74.179593914
 20
-12.2902909564
 10
-74.1736057258
 20
-12.3001096901
 10
-74.1655469801
 20
-12.3025709825
 10
-74.1557273701
 20
-12.2975802474
 10
-74.1445242578
 20
-12.285329276
 10
-74.1323681727
 20
-12.2662888663
 10
-74.1197262661
 20
-12.2411907305
  0
SPLINE
  5
E7
330
23
100
AcDbEntity
  8
0
  6
Continuous
 62
     7
370
    25
100
AcDbSpline
210
0.0
220
0.0
230
1.0
 70
     8
 71
     3
 72
    11
 73
     7
 74
     0
 42
0.000000001
 43
0.00000001
 40
0.0
 40
0.0
 40
0.0
 40
0.0
 40
0.3958988656659009
 40
0.7979405859306051
 40
0.9982414995226194
 40
0.9999999999999999
 40
0.9999999999999999
 40
0.9999999999999999
 40
0.9999999999999999
 10
-74.11972626611421
 20
-12.24119073050363
 30
0.0
 10
-73.70806862180825
 20
-12.35250371350489
 30
0.0
 10
-72.87836596189331
 20
-12.57685683643773
 30
0.0
 10
-71.85436358818339
 20
-12.70701225648043
 30
0.0
 10
-71.23320290156174
 20
-12.76255237943977
 30
0.0
 10
-71.04137043351906
 20
-12.74673604211315
 30
0.0
 10
-71.03970093700893
 20
-12.74659839429868
 30
0.0
  0
SPLINE
  5
E8
330
23
100
AcDbEntity
  8
0
  6
Continuous
 62
     7
370
    25
100
AcDbSpline
210
0.0
220
0.0
230
1.0
 70
     8
 71
     3
 72
    11
 73
     7
 74
     0
 42
0.000000001
 43
0.00000001
 40
0.0
 40
0.0
 40
0.0
 40
0.0
 40
0.3934436712275758
 40
0.7929921017125614
 40
0.9920508352134136
 40
1.0
 40
1.0
 40
1.0
 40
1.0
 10
74.11972626611424
 20
-12.24119073050362
 30
0.0
 10
73.70809922623383
 20
-12.35243765010152
 30
0.0
 10
72.87845825003501
 20
-12.57665762117322
 30
0.0
 10
71.85406644573665
 20
-12.70765367486914
 30
0.0
 10
71.22710599914413
 20
-12.7624362274619
 30
0.0
 10
71.0295110773077
 20
-12.74578178981451
 30
0.0
 10
71.02192337361299
 20
-12.7451422544616
 30
0.0
  0
LWPOLYLINE
  5
EB
330
23
100
AcDbEntity
  8
0
  6
Continuous
 62
     8
370
    25
100
AcDbPolyline
 90
        6
 70
   128
 43
0.0
 10
74.1197262661
 20
-12.2411907305
 10
74.1323681727
 20
-12.2662888663
 10
74.1445242578
 20
-12.285329276
 10
74.1557273701
 20
-12.2975802474
 10
74.1655469801
 20
-12.3025709825
 10
74.1718629313
 20
-12.3013721927
  0
LINE
  5
EC
330
23
100
AcDbEntity
  8
0
  6
Continuous
 62
     7
370
    25
100
AcDbLine
 10
-71.0917044597
 20
-12.7471834865
 30
0.0
 11
71.0917044597
 21
-12.7471834865
 31
0.0
  0
LINE
  5
ED
330
23
100
AcDbEntity
  8
0
  6
Continuous
 62
     7
370
    25
100
AcDbLine
 10
73.8304951632
 20
-12.3715271333
 30
0.0
 11
74.1686576613
 21
-12.2897347425
 31
0.0
  0
LINE
  5
EE
330
23
100
AcDbEntity
  8
0
  6
Continuous
 62
     7
370
    25
100
AcDbLine
 10
105.6000585511
 20
0.0
 30
0.0
 11
-105.6000585511
 21
0.0
 31
0.0
  0
LINE
  5
EF
330
23
100
AcDbEntity
  8
0
  6
Continuous
 62
     7
370
    25
100
AcDbLine
 10
80.7607751582
 20
3.6185674146
 30
0.0
 11
79.2392248418
 21
3.6185674146
 31
0.0
  0
LINE
  5
F0
330
23
100
AcDbEntity
  8
0
  6
Continuous
 62
     7
370
    25
100
AcDbLine
 10
-79.2392248418
 20
3.6185674146
 30
0.0
 11
-80.7607751582
 21
3.6185674146
 31
0.0
  0
LINE
  5
F1
330
23
100
AcDbEntity
  8
0
  6
Continuous
 62
     7
370
    25
100
AcDbLine
 10
109.7561484151
 20
14.6
 30
0.0
 11
-109.7561484151
 21
14.6
 31
0.0
  0
LINE
  5
F2
330
23
100
AcDbEntity
  8
0
  6
Continuous
 62
     7
370
    25
100
AcDbLine
 10
-74.1197262661
 20
-12.2411907305
 30
0.0
 11
74.1197262661
 21
-12.2411907305
 31
0.0
  0
ARC
  5
F3
330
23
100
AcDbEntity
  8
0
  6
Continuous
 62
     7
370
    25
100
AcDbCircle
 10
-36.6658687119
 20
28.1215567092
 30
0.0
 40
74.56983534613819
100
AcDbArc
 50
190.6321606582
 51
201.9298732104
  0
ARC
  5
F4
330
23
100
AcDbEntity
  8
0
  6
Continuous
 62
     7
370
    25
100
AcDbCircle
 10
36.6658687119
 20
28.1215567092
 30
0.0
 40
74.56983534613765
100
AcDbArc
 50
338.0701267896
 51
349.3678393418
  0
ARC
  5
F5
330
23
100
AcDbEntity
  8
0
  6
Continuous
 62
     7
370
    25
100
AcDbCircle
 10
70.4642683412
 20
34.7227071446
 30
0.0
 40
45.82575544559607
100
AcDbArc
 50
292.4986118807
 51
310.7371279095
  0
ARC
  5
F6
330
23
100
AcDbEntity
  8
0
  6
Continuous
 62
     7
370
    25
100
AcDbCircle
 10
49.7239798558
 20
83.3237736647
 30
0.0
 40
98.62968550475304
100
AcDbArc
 50
284.3205704269
 51
292.7731731966
  0
ARC
  5
F7
330
23
100
AcDbEntity
  8
0
  6
Continuous
 62
     7
370
    25
100
AcDbCircle
 10
-49.7239798558
 20
83.3237736647
 30
0.0
 40
98.6296855047535
100
AcDbArc
 50
247.2268268034
 51
255.6794295731
  0
ARC
  5
F8
330
23
100
AcDbEntity
  8
0
  6
Continuous
 62
     7
370
    25
100
AcDbCircle
 10
-70.787109561
 20
34.1983027779
 30
0.0
 40
45.21783069531725
100
AcDbArc
 50
229.1392021263
 51
247.6250580834
  0
ARC
  5
F9
330
23
100
AcDbEntity
  8
0
  6
Continuous
 62
     7
370
    25
100
AcDbCircle
 10
49.7299153434
 20
83.5451955177
 30
0.0
 40
98.86767024970848
100
AcDbArc
 50
284.3205704269
 51
292.7731731966
  0
ARC
  5
FA
330
23
100
AcDbEntity
  8
0
  6
Continuous
 62
     7
370
    25
100
AcDbCircle
 10
-49.7299153434
 20
83.5451955177
 30
0.0
 40
98.86767024970817
100
AcDbArc
 50
247.2268268034
 51
255.6794295731
  0
ARC
  5
FB
330
23
100
AcDbEntity
  8
0
  6
Continuous
 62
     8
370
    25
100
AcDbCircle
 10
70.7719803064
 20
33.9990977801
 30
0.0
 40
45.00389568795585
100
AcDbArc
 50
292.3728925654
 51
310.933536565
  0
ARC
  5
FC
330
23
100
AcDbEntity
  8
0
  6
Continuous
 62
     8
370
    25
100
AcDbCircle
 10
-70.4502415014
 20
34.5209900251
 30
0.0
 40
45.60907467695451
100
AcDbArc
 50
229.1906688065
 51
247.5029020631
  0
VIEWPORT
  5
381
330
23
100
AcDbEntity
  8
0
100
AcDbViewport
 10
0.0
 20
0.0
 30
0.0
 40
205.6
 41
156.0
 68
     1
 69
     1
 12
-13.0911322451
 22
0.9264697138
 13
0.0
 23
0.0
 14
10.0
 24
10.0
 15
10.0
 25
10.0
 16
0.0
 26
0.0
 36
1.0
 17
0.0
 27
0.0
 37
0.0
 42
50.0
 43
0.0
 44
0.0
 45
27.8940017838
 50
0.0
 51
0.0
 72
   100
 90
   557152
  1

281
     0
 71
     1
 74
     0
110
0.0
120
0.0
130
0.0
111
1.0
121
0.0
131
0.0
112
0.0
122
1.0
132
0.0
 79
     0
146
0.0
  0
ENDBLK
  5
25
330
23
100
AcDbEntity
  8
0
100
AcDbBlockEnd
  0
BLOCK
  5
FF
330
FD
100
AcDbEntity
  8
0
100
AcDbBlockBegin
  2
*Paper_Space1
 70
     0
 10
0.0
 20
0.0
 30
0.0
  3
*Paper_Space1
  1

  0
SPLINE
  5
101
330
FD
100
AcDbEntity
  8
0
  6
Continuous
 62
     7
370
    25
100
AcDbSpline
210
0.0
220
0.0
230
1.0
 70
     8
 71
     3
 72
    11
 73
     7
 74
     0
 42
0.000000001
 43
0.00000001
 40
0.0
 40
0.0
 40
0.0
 40
0.0
 40
0.0644133333712771
 40
0.470917465902742
 40
0.8154006291035651
 40
1.0
 40
1.0
 40
1.0
 40
1.0
 10
-74.10991887227529
 20
-12.31423969638441
 30
0.0
 10
-74.04360498808663
 20
-12.33192281328487
 30
0.0
 10
-73.55879284342878
 20
-12.46120177098184
 30
0.0
 10
-72.71563317375349
 20
-12.61648526820178
 30
0.0
 10
-71.75342806921032
 20
-12.7360002547817
 30
0.0
 10
-71.22374418197212
 20
-12.74164132359832
 30
0.0
 10
-71.03893499615202
 20
-12.74360951889418
 30
0.0
  0
SPLINE
  5
104
330
FD
100
AcDbEntity
  8
0
  6
Continuous
 62
     7
370
    25
100
AcDbSpline
210
0.0
220
0.0
230
1.0
 70
     8
 71
     3
 72
    11
 73
     7
 74
     0
 42
0.000000001
 43
0.00000001
 40
0.0
 40
0.0
 40
0.0
 40
0.0
 40
0.1417360767019499
 40
0.4153886602310744
 40
0.8055346529420898
 40
1.0
 40
1.0
 40
1.0
 40
1.0
 10
71.02100471362938
 20
-12.74081589257217
 30
0.0
 10
71.15006587377991
 20
-12.74244832017457
 30
0.0
 10
71.52830791102447
 20
-12.74723250730933
 30
0.0
 10
72.28394027035137
 20
-12.67126755123894
 30
0.0
 10
73.09453262139448
 20
-12.55902494639092
 30
0.0
 10
73.64684610310361
 20
-12.41831526847663
 30
0.0
 10
73.83056787789467
 20
-12.37150954561668
 30
0.0
  0
SPLINE
  5
105
330
FD
100
AcDbEntity
  8
0
  6
Continuous
 62
     7
370
    25
100
AcDbSpline
210
0.0
220
0.0
230
1.0
 70
     8
 71
     3
 72
    13
 73
     9
 74
     0
 42
0.000000001
 43
0.00000001
 40
0.0
 40
0.0
 40
0.0
 40
0.0
 40
0.0530427828436798
 40
0.2635485781478211
 40
0.4679304355498037
 40
0.6626667935628785
 40
0.8481749514121221
 40
1.0
 40
1.0
 40
1.0
 40
1.0
 10
102.1955424322265
 20
1.668953047606785
 30
0.0
 10
102.2530655061885
 20
1.727228942120904
 30
0.0
 10
102.5388748762976
 20
2.016778779367399
 30
0.0
 10
103.0204445756453
 20
2.452195063710711
 30
0.0
 10
103.6203087639866
 20
2.94968765266597
 30
0.0
 10
104.1439640138437
 20
3.310290774774853
 30
0.0
 10
104.5770191719331
 20
3.542389290133227
 30
0.0
 10
104.7914825817121
 20
3.594217225650476
 30
0.0
 10
104.8880070773404
 20
3.61754365387622
 30
0.0
  0
SPLINE
  5
107
330
FD
100
AcDbEntity
  8
0
  6
Continuous
 62
     7
370
    25
100
AcDbSpline
210
0.0
220
0.0
230
1.0
 70
     8
 71
     3
 72
    14
 73
    10
 74
     0
 42
0.000000001
 43
0.00000001
 40
0.0
 40
0.0
 40
0.0
 40
0.0
 40
0.1229896957331039
 40
0.2835042607746147
 40
0.4489898257748295
 40
0.6216374747783148
 40
0.8026923052026711
 40
0.9918191888459471
 40
0.9999999999999999
 40
0.9999999999999999
 40
0.9999999999999999
 40
0.9999999999999999
 10
-104.9174080584731
 20
3.622561642651876
 30
0.0
 10
-104.8377001355179
 20
3.606781749327765
 30
0.0
 10
-104.6539649401375
 20
3.570407425728638
 30
0.0
 10
-104.2797345325705
 20
3.388336098953522
 30
0.0
 10
-103.8222597770167
 20
3.095705829404082
 30
0.0
 10
-103.2987076035823
 20
2.691482244316006
 30
0.0
 10
-102.7148079783262
 20
2.175310290906272
 30
0.0
 10
-102.2934812962036
 20
1.780316752878931
 30
0.0
 10
-102.0644918941974
 20
1.543070013240159
 30
0.0
 10
-102.0549974897546
 20
1.533233241410793
 30
0.0
  0
SPLINE
  5
108
330
FD
100
AcDbEntity
  8
0
  6
Continuous
 62
     7
370
    25
100
AcDbSpline
210
0.0
220
0.0
230
1.0
 70
     8
 71
     3
 72
    16
 73
    12
 74
     0
 42
0.000000001
 43
0.00000001
 40
0.0
 40
0.0
 40
0.0
 40
0.0
 40
0.1249999999999999
 40
0.1249999999999999
 40
0.2499999999999998
 40
0.2499999999999998
 40
0.4999999999999999
 40
0.4999999999999999
 40
0.7499999999999999
 40
0.7499999999999999
 40
1.0
 40
1.0
 40
1.0
 40
1.0
 10
70.14872778139457
 20
-10.92590459573877
 30
0.0
 10
70.2692045719589
 20
-10.80387981950708
 30
0.0
 10
70.41953645689507
 20
-10.69615937867158
 30
0.0
 10
70.72811910414421
 20
-10.49812991528092
 30
0.0
 10
70.88835863957081
 20
-10.40795518790577
 30
0.0
 10
71.37832422153473
 20
-10.15094736197444
 30
0.0
 10
71.71918220547752
 20
-9.997021801598107
 30
0.0
 10
72.40072657032255
 20
-9.713032521747325
 30
0.0
 10
72.74305236098836
 20
-9.582876106322255
 30
0.0
 10
73.4297764538276
 20
-9.340745455982624
 30
0.0
 10
73.77419710417564
 20
-9.228891473744076
 30
0.0
 10
74.11972626611424
 20
-9.12663469928042
 30
0.0
  0
SPLINE
  5
10A
330
FD
100
AcDbEntity
  8
0
  6
Continuous
 62
     7
370
    25
100
AcDbSpline
210
0.0
220
0.0
230
1.0
 70
     8
 71
     3
 72
    16
 73
    12
 74
     0
 42
0.000000001
 43
0.00000001
 40
0.0
 40
0.0
 40
0.0
 40
0.0
 40
0.2500000000000022
 40
0.2500000000000022
 40
0.5000000000000044
 40
0.5000000000000044
 40
0.7500000000000067
 40
0.7500000000000067
 40
0.8750000000000033
 40
0.8750000000000033
 40
1.0
 40
1.0
 40
1.0
 40
1.0
 10
74.18452654125586
 20
-9.400871287511276
 30
0.0
 10
73.84133568376414
 20
-9.48889408880985
 30
0.0
 10
73.49898436306255
 20
-9.585145723960844
 30
0.0
 10
72.81588978690912
 20
-9.79349987313512
 30
0.0
 10
72.47512954250648
 20
-9.905497959754445
 30
0.0
 10
71.79596463954027
 20
-10.14987367409159
 30
0.0
 10
71.4561155918134
 20
-10.2821788758112
 30
0.0
 10
70.9629074355266
 20
-10.5048504966771
 30
0.0
 10
70.80090407958068
 20
-10.58318492931702
 30
0.0
 10
70.48644200927198
 20
-10.75646380246495
 30
0.0
 10
70.33127450543822
 20
-10.8509305775376
 30
0.0
 10
70.20394638691015
 20
-10.96249639166391
 30
0.0
  0
SPLINE
  5
10F
330
FD
100
AcDbEntity
  8
0
  6
Continuous
 62
     7
370
    25
100
AcDbSpline
210
0.0
220
0.0
230
1.0
 70
     8
 71
     3
 72
    16
 73
    12
 74
     0
 42
0.000000001
 43
0.00000001
 40
0.0
 40
0.0
 40
0.0
 40
0.0
 40
0.1250000000000004
 40
0.1250000000000004
 40
0.2500000000000007
 40
0.2500000000000007
 40
0.5000000000000004
 40
0.5000000000000004
 40
0.7500000000000002
 40
0.7500000000000002
 40
1.0
 40
1.0
 40
1.0
 40
1.0
 10
70.20394638691259
 20
-12.56473128191748
 30
0.0
 10
70.33127450543971
 20
-12.62151269034248
 30
0.0
 10
70.48644200927188
 20
-12.64865788658769
 30
0.0
 10
70.80090407958059
 20
-12.68382151730849
 30
0.0
 10
70.96290743552649
 20
-12.69023851384775
 30
0.0
 10
71.45611559181336
 20
-12.69140807582183
 30
0.0
 10
71.7959646395402
 20
-12.66768337900535
 30
0.0
 10
72.47512954250645
 20
-12.59291558848152
 30
0.0
 10
72.81588978690907
 20
-12.54119636443951
 30
0.0
 10
73.49898436306252
 20
-12.41398419872796
 30
0.0
 10
73.84133568376413
 20
-12.33838152163109
 30
0.0
 10
74.18452654125585
 20
-12.25035872033252
 30
0.0
  0
SPLINE
  5
111
330
FD
100
AcDbEntity
  8
0
  6
Continuous
 62
     7
370
    25
100
AcDbSpline
210
0.0
220
0.0
230
1.0
 70
     8
 71
     3
 72
    16
 73
    12
 74
     0
 42
0.000000001
 43
0.00000001
 40
0.0
 40
0.0
 40
0.0
 40
0.0
 40
0.2500000000000024
 40
0.2500000000000024
 40
0.5000000000000049
 40
0.5000000000000049
 40
0.7500000000000073
 40
0.7500000000000073
 40
0.8750000000000037
 40
0.8750000000000037
 40
1.0
 40
1.0
 40
1.0
 40
1.0
 10
-74.18452654125589
 20
-12.25035872033251
 30
0.0
 10
-73.84133568376416
 20
-12.33838152163109
 30
0.0
 10
-73.49898436306258
 20
-12.41398419872796
 30
0.0
 10
-72.81588978690912
 20
-12.5411963644395
 30
0.0
 10
-72.47512954250655
 20
-12.59291558848152
 30
0.0
 10
-71.79596463954032
 20
-12.66768337900535
 30
0.0
 10
-71.45611559181344
 20
-12.69140807582183
 30
0.0
 10
-70.96290743552663
 20
-12.69023851384775
 30
0.0
 10
-70.80090407958068
 20
-12.68382151730849
 30
0.0
 10
-70.48644200927198
 20
-12.6486578865877
 30
0.0
 10
-70.33127450543816
 20
-12.62151269034478
 30
0.0
 10
-70.20394638691015
 20
-12.56473128192003
 30
0.0
  0
SPLINE
  5
115
330
FD
100
AcDbEntity
  8
0
  6
Continuous
 62
     7
370
    25
100
AcDbSpline
210
0.0
220
0.0
230
1.0
 70
     8
 71
     3
 72
    16
 73
    12
 74
     0
 42
0.000000001
 43
0.00000001
 40
0.0
 40
0.0
 40
0.0
 40
0.0
 40
0.1250000000000002
 40
0.1250000000000002
 40
0.2500000000000005
 40
0.2500000000000005
 40
0.5000000000000003
 40
0.5000000000000003
 40
0.7500000000000001
 40
0.7500000000000001
 40
1.0
 40
1.0
 40
1.0
 40
1.0
 10
-70.20394638691262
 20
-10.96249639166541
 30
0.0
 10
-70.33127450543975
 20
-10.85093057753925
 30
0.0
 10
-70.48644200927187
 20
-10.75646380246501
 30
0.0
 10
-70.80090407958059
 20
-10.58318492931707
 30
0.0
 10
-70.96290743552655
 20
-10.50485049667714
 30
0.0
 10
-71.45611559181339
 20
-10.28217887581124
 30
0.0
 10
-71.79596463954023
 20
-10.14987367409164
 30
0.0
 10
-72.4751295425065
 20
-9.905497959754483
 30
0.0
 10
-72.8158897869091
 20
-9.793499873135127
 30
0.0
 10
-73.49898436306255
 20
-9.58514572396084
 30
0.0
 10
-73.84133568376413
 20
-9.488894088809854
 30
0.0
 10
-74.18452654125589
 20
-9.400871287511276
 30
0.0
  0
SPLINE
  5
118
330
FD
100
AcDbEntity
  8
0
  6
Continuous
 62
     7
370
    25
100
AcDbSpline
210
0.0
220
0.0
230
1.0
 70
     8
 71
     3
 72
    16
 73
    12
 74
     0
 42
0.000000001
 43
0.00000001
 40
0.0
 40
0.0
 40
0.0
 40
0.0
 40
0.1250000000000001
 40
0.1250000000000001
 40
0.2500000000000001
 40
0.2500000000000001
 40
0.5000000000000001
 40
0.5000000000000001
 40
0.7500000000000001
 40
0.7500000000000001
 40
1.0
 40
1.0
 40
1.0
 40
1.0
 10
-70.14872778139463
 20
-10.92590459573881
 30
0.0
 10
-70.26920457195892
 20
-10.80387981950712
 30
0.0
 10
-70.41953645689507
 20
-10.69615937867158
 30
0.0
 10
-70.72811910414426
 20
-10.49812991528092
 30
0.0
 10
-70.88835863957084
 20
-10.40795518790576
 30
0.0
 10
-71.37832422153474
 20
-10.15094736197442
 30
0.0
 10
-71.71918220547752
 20
-9.997021801598102
 30
0.0
 10
-72.40072657032255
 20
-9.713032521747316
 30
0.0
 10
-72.74305236098837
 20
-9.58287610632226
 30
0.0
 10
-73.42977645382766
 20
-9.340745455982628
 30
0.0
 10
-73.77419710417564
 20
-9.228891473744072
 30
0.0
 10
-74.11972626611426
 20
-9.12663469928042
 30
0.0
  0
SPLINE
  5
12F
330
FD
100
AcDbEntity
  8
0
  6
Continuous
 62
     7
370
    25
100
AcDbSpline
210
0.0
220
0.0
230
1.0
 70
     8
 71
     3
 72
     9
 73
     5
 74
     0
 42
0.000000001
 43
0.00000001
 40
0.0
 40
0.0
 40
0.0
 40
0.0
 40
0.6615487959225168
 40
1.0
 40
1.0
 40
1.0
 40
1.0
 10
71.09170445966515
 20
-12.74513464484547
 30
0.0
 10
71.07576938374042
 20
-12.74636822736165
 30
0.0
 10
71.05168185456199
 20
-12.74823291598898
 30
0.0
 10
71.02944833505934
 20
-12.74592378322569
 30
0.0
 10
71.0219233736128
 20
-12.74514225446159
 30
0.0
  0
LWPOLYLINE
  5
131
330
FD
100
AcDbEntity
  8
0
  6
Continuous
 62
     7
370
    25
100
AcDbPolyline
 90
        5
 70
   128
 43
0.0
 10
74.1845265413
 20
-12.2503587203
 10
74.1832814221
 20
-12.2734921097
 10
74.179593914
 20
-12.2902909564
 10
74.1736057258
 20
-12.3001096901
 10
74.1717943735
 20
-12.3014118955
  0
SPLINE
  5
137
330
FD
100
AcDbEntity
  8
0
  6
Continuous
 62
     7
370
    25
100
AcDbSpline
210
0.0
220
0.0
230
1.0
 70
     8
 71
     3
 72
    11
 73
     7
 74
     0
 42
0.000000001
 43
0.00000001
 40
0.0
 40
0.0
 40
0.0
 40
0.0
 40
0.2480047796075099
 40
0.5027550465020872
 40
0.750702165027703
 40
1.0
 40
1.0
 40
1.0
 40
1.0
 10
-107.162798706869
 20
10.80146020065695
 30
0.0
 10
-107.4211097576412
 20
11.21781323765064
 30
0.0
 10
-107.9447576669616
 20
12.06184370676628
 30
0.0
 10
-108.6139818264603
 20
13.06149720081786
 30
0.0
 10
-109.193743922698
 20
13.8417797571143
 30
0.0
 10
-109.4842573814358
 20
14.09758865568112
 30
0.0
 10
-109.6299086862588
 20
14.22584054467615
 30
0.0
  0
SPLINE
  5
139
330
FD
100
AcDbEntity
  8
0
  6
Continuous
 62
     7
370
    25
100
AcDbSpline
210
0.0
220
0.0
230
1.0
 70
     8
 71
     3
 72
    30
 73
    26
 74
     0
 42
0.000000001
 43
0.00000001
 40
0.0
 40
0.0
 40
0.0
 40
0.0
 40
0.0625
 40
0.0625
 40
0.1250000000000001
 40
0.1250000000000001
 40
0.1875000000000001
 40
0.1875000000000001
 40
0.2500000000000002
 40
0.2500000000000002
 40
0.3750000000000003
 40
0.3750000000000003
 40
0.4375000000000003
 40
0.4375000000000003
 40
0.5000000000000003
 40
0.5000000000000003
 40
0.5625000000000003
 40
0.5625000000000003
 40
0.6250000000000004
 40
0.6250000000000004
 40
0.7500000000000004
 40
0.7500000000000004
 40
0.8750000000000002
 40
0.8750000000000002
 40
1.0
 40
1.0
 40
1.0
 40
1.0
 10
-105.8399543518194
 20
0.271849001118092
 30
0.0
 10
-105.8968489148549
 20
0.5174106052125529
 30
0.0
 10
-105.944213325858
 20
0.7548956638892357
 30
0.0
 10
-106.0203590330763
 20
1.213268069435287
 30
0.0
 10
-106.0491462656306
 20
1.435194083986717
 30
0.0
 10
-106.086707339697
 20
1.850215118183552
 30
0.0
 10
-106.0957907160559
 20
2.044678556279322
 30
0.0
 10
-106.0948041253456
 20
2.407591574703131
 30
0.0
 10
-106.0845628070585
 20
2.577201487309075
 30
0.0
 10
-106.0245754437753
 20
3.036583873732191
 30
0.0
 10
-105.9475821530048
 20
3.273381893045812
 30
0.0
 10
-105.7762212280056
 20
3.531110322648739
 30
0.0
 10
-105.7094069799308
 20
3.600149503822039
 30
0.0
 10
-105.5613395756678
 20
3.701777973783566
 30
0.0
 10
-105.4795923791991
 20
3.735264614524919
 30
0.0
 10
-105.3007008023051
 20
3.769995020284904
 30
0.0
 10
-105.2035531331098
 20
3.771226035600537
 30
0.0
 10
-104.9931734446449
 20
3.742350728326117
 30
0.0
 10
-104.8803310870935
 20
3.71207330271719
 30
0.0
 10
-104.5272132765753
 20
3.579966369330244
 30
0.0
 10
-104.2695611088065
 20
3.437067388200886
 30
0.0
 10
-103.7081374686781
 20
3.055056537506272
 30
0.0
 10
-103.4121057202254
 20
2.821009970933622
 30
0.0
 10
-102.7972368885434
 20
2.287764796220436
 30
0.0
 10
-102.4771838089381
 20
1.98757464781689
 30
0.0
 10
-102.1440207740175
 20
1.65610383549647
 30
0.0
  0
SPLINE
  5
13A
330
FD
100
AcDbEntity
  8
0
  6
Continuous
 62
     7
370
    25
100
AcDbSpline
210
0.0
220
0.0
230
1.0
 70
     8
 71
     3
 72
    12
 73
     8
 74
     0
 42
0.000000001
 43
0.00000001
 40
0.0
 40
0.0
 40
0.0
 40
0.0
 40
0.0693058150428836
 40
0.2984387070408285
 40
0.5352295819491173
 40
0.7643847883914888
 40
1.0
 40
1.0
 40
1.0
 40
1.0
 10
109.7507306077505
 20
14.28135034733206
 30
0.0
 10
109.7155926782563
 20
14.26998602131239
 30
0.0
 10
109.5642847650627
 20
14.22104994341471
 30
0.0
 10
109.1954678801745
 20
13.82686436019285
 30
0.0
 10
108.6289442268088
 20
13.08701104207399
 30
0.0
 10
107.9508526567303
 20
12.070424891119
 30
0.0
 10
107.4279062280582
 20
11.22834986173173
 30
0.0
 10
107.1627987068691
 20
10.80146020065695
 30
0.0
  0
SPLINE
  5
13C
330
FD
100
AcDbEntity
  8
0
  6
Continuous
 62
     7
370
    25
100
AcDbSpline
210
0.0
220
0.0
230
1.0
 70
     8
 71
     3
 72
    30
 73
    26
 74
     0
 42
0.000000001
 43
0.00000001
 40
0.0
 40
0.0
 40
0.0
 40
0.0
 40
0.1250000000000002
 40
0.1250000000000002
 40
0.2500000000000003
 40
0.2500000000000003
 40
0.3750000000000005
 40
0.3750000000000005
 40
0.4375000000000004
 40
0.4375000000000004
 40
0.5000000000000004
 40
0.5000000000000004
 40
0.5625000000000004
 40
0.5625000000000004
 40
0.6250000000000003
 40
0.6250000000000003
 40
0.7500000000000003
 40
0.7500000000000003
 40
0.8125000000000003
 40
0.8125000000000003
 40
0.8750000000000002
 40
0.8750000000000002
 40
0.9375000000000002
 40
0.9375000000000002
 40
1.0
 40
1.0
 40
1.0
 40
1.0
 10
102.1440207740152
 20
1.656103835494272
 30
0.0
 10
102.477183808936
 20
1.987574647814901
 30
0.0
 10
102.7972368885414
 20
2.287764796218661
 30
0.0
 10
103.4121057202237
 20
2.821009970932265
 30
0.0
 10
103.7081374686766
 20
3.055056537505133
 30
0.0
 10
104.2695611088053
 20
3.437067388200146
 30
0.0
 10
104.5272132765742
 20
3.5799663693297
 30
0.0
 10
104.8803310870925
 20
3.712073302716916
 30
0.0
 10
104.9931734446441
 20
3.742350728325932
 30
0.0
 10
105.2035531331091
 20
3.771226035600512
 30
0.0
 10
105.3007008023045
 20
3.769995020284953
 30
0.0
 10
105.4795923791985
 20
3.735264614525101
 30
0.0
 10
105.5613395756672
 20
3.701777973783809
 30
0.0
 10
105.7094069799304
 20
3.600149503822383
 30
0.0
 10
105.7762212280052
 20
3.531110322649124
 30
0.0
 10
105.9475821530047
 20
3.273381893046306
 30
0.0
 10
106.0245754437751
 20
3.036583873732715
 30
0.0
 10
106.0845628070585
 20
2.577201487309553
 30
0.0
 10
106.0948041253456
 20
2.407591574703603
 30
0.0
 10
106.0957907160558
 20
2.044678556279743
 30
0.0
 10
106.086707339697
 20
1.850215118183933
 30
0.0
 10
106.0491462656307
 20
1.435194083986997
 30
0.0
 10
106.0203590330764
 20
1.21326806943551
 30
0.0
 10
105.944213325858
 20
0.7548956638893529
 30
0.0
 10
105.896848914855
 20
0.5174106052126104
 30
0.0
 10
105.8399543518193
 20
0.2718490011180805
 30
0.0
  0
SPLINE
  5
140
330
FD
100
AcDbEntity
  8
0
  6
Continuous
 62
     7
370
    25
100
AcDbSpline
210
0.0
220
0.0
230
1.0
 70
     8
 71
     3
 72
    12
 73
     8
 74
     0
 42
0.000000001
 43
0.00000001
 40
0.0
 40
0.0
 40
0.0
 40
0.0
 40
0.4999999999999674
 40
0.4999999999999674
 40
0.7499999999999837
 40
0.7499999999999837
 40
1.0
 40
1.0
 40
1.0
 40
1.0
 10
105.8399543518193
 20
0.2718490011180801
 30
0.0
 10
105.8162229323418
 20
0.2132550796266797
 30
0.0
 10
105.787436626174
 20
0.1574854705034388
 30
0.0
 10
105.7310110294775
 20
0.0812320594737779
 30
0.0
 10
105.709924247506
 20
0.0570459577095509
 30
0.0
 10
105.6609903853244
 20
0.0170850983118598
 30
0.0
 10
105.6322919134979
 20
-0.0000000000011232
 30
0.0
 10
105.6000585511033
 20
0.0000000000031713
 30
0.0
  0
SPLINE
  5
142
330
FD
100
AcDbEntity
  8
0
  6
Continuous
 62
     7
370
    25
100
AcDbSpline
210
0.0
220
0.0
230
1.0
 70
     8
 71
     3
 72
    12
 73
     8
 74
     0
 42
0.000000001
 43
0.00000001
 40
0.0
 40
0.0
 40
0.0
 40
0.0
 40
0.25
 40
0.25
 40
0.5
 40
0.5
 40
1.0
 40
1.0
 40
1.0
 40
1.0
 10
-105.6000585511047
 20
0.0
 30
0.0
 10
-105.6322268897588
 20
-0.0000000000000056
 30
0.0
 10
-105.6610277991601
 20
0.017083535670658
 30
0.0
 10
-105.7102045180941
 20
0.0573071591295476
 30
0.0
 10
-105.730837919334
 20
0.0810272032124545
 30
0.0
 10
-105.7872583149285
 20
0.1571867361716029
 30
0.0
 10
-105.8162318472239
 20
0.2132770908637542
 30
0.0
 10
-105.8399543518194
 20
0.2718490011180967
 30
0.0
  0
SPLINE
  5
145
330
FD
100
AcDbEntity
  8
0
  6
Continuous
 62
     7
370
    25
100
AcDbSpline
210
0.0
220
0.0
230
1.0
 70
     8
 71
     3
 72
    18
 73
    14
 74
     0
 42
0.000000001
 43
0.00000001
 40
0.0
 40
0.0
 40
0.0
 40
0.0
 40
0.1249999999999993
 40
0.1249999999999993
 40
0.2499999999999987
 40
0.2499999999999987
 40
0.4999999999999982
 40
0.4999999999999982
 40
0.6249999999999986
 40
0.6249999999999986
 40
0.7499999999999989
 40
0.7499999999999989
 40
1.0
 40
1.0
 40
1.0
 40
1.0
 10
-109.7561484150619
 20
14.6
 30
0.0
 10
-109.6912274610632
 20
14.6
 30
0.0
 10
-109.6203622695248
 20
14.57830645154818
 30
0.0
 10
-109.4652751221191
 20
14.49263150022269
 30
0.0
 10
-109.3808526652103
 20
14.42830441672136
 30
0.0
 10
-109.110442299798
 20
14.17768631233441
 30
0.0
 10
-108.906027457815
 20
13.93383907261005
 30
0.0
 10
-108.5565035959193
 20
13.46038074970586
 30
0.0
 10
-108.431997794252
 20
13.28323467432987
 30
0.0
 10
-108.1716905207359
 20
12.89915407652211
 30
0.0
 10
-108.0361602326857
 20
12.69273367761805
 30
0.0
 10
-107.6130083864842
 20
12.0332497438311
 30
0.0
 10
-107.3088684672588
 20
11.54035575198369
 30
0.0
 10
-106.981103103087
 20
10.99659330286613
 30
0.0
  0
SPLINE
  5
146
330
FD
100
AcDbEntity
  8
0
  6
Continuous
 62
     7
370
    25
100
AcDbSpline
210
0.0
220
0.0
230
1.0
 70
     8
 71
     3
 72
    10
 73
     6
 74
     0
 42
0.000000001
 43
0.00000001
 40
0.0
 40
0.0
 40
0.0
 40
0.0
 40
0.5
 40
0.5
 40
1.0
 40
1.0
 40
1.0
 40
1.0
 10
-109.9554847021401
 20
14.36319446847651
 30
0.0
 10
-109.9665546261556
 20
14.42158886884757
 30
0.0
 10
-109.9496502538174
 20
14.4835174975888
 30
0.0
 10
-109.873772990132
 20
14.57303241091517
 30
0.0
 10
-109.8155604990051
 20
14.6000000000044
 30
0.0
 10
-109.7561484150623
 20
14.60000000000451
 30
0.0
  0
SPLINE
  5
147
330
FD
100
AcDbEntity
  8
0
  6
Continuous
 62
     7
370
    25
100
AcDbSpline
210
0.0
220
0.0
230
1.0
 70
     8
 71
     3
 72
    18
 73
    14
 74
     0
 42
0.000000001
 43
0.00000001
 40
0.0
 40
0.0
 40
0.0
 40
0.0
 40
0.2500000000000004
 40
0.2500000000000004
 40
0.3750000000000005
 40
0.3750000000000005
 40
0.5000000000000006
 40
0.5000000000000006
 40
0.7500000000000008
 40
0.7500000000000008
 40
0.8750000000000004
 40
0.8750000000000004
 40
1.0
 40
1.0
 40
1.0
 40
1.0
 10
106.981103103087
 20
10.99659330286613
 30
0.0
 10
107.3088684672588
 20
11.5403557519837
 30
0.0
 10
107.6130083864842
 20
12.03324974383109
 30
0.0
 10
108.0361602326857
 20
12.69273367761805
 30
0.0
 10
108.1716905207359
 20
12.89915407652211
 30
0.0
 10
108.431997794252
 20
13.28323467432987
 30
0.0
 10
108.5565035959193
 20
13.46038074970586
 30
0.0
 10
108.906027457815
 20
13.93383907261005
 30
0.0
 10
109.110442299798
 20
14.17768631233441
 30
0.0
 10
109.3808526652103
 20
14.42830441672136
 30
0.0
 10
109.4652751221191
 20
14.49263150022268
 30
0.0
 10
109.6203622695248
 20
14.57830645154818
 30
0.0
 10
109.6912274610633
 20
14.6
 30
0.0
 10
109.7561484150619
 20
14.6
 30
0.0
  0
SPLINE
  5
148
330
FD
100
AcDbEntity
  8
0
  6
Continuous
 62
     7
370
    25
100
AcDbSpline
210
0.0
220
0.0
230
1.0
 70
     8
 71
     3
 72
    10
 73
     6
 74
     0
 42
0.000000001
 43
0.00000001
 40
0.0
 40
0.0
 40
0.0
 40
0.0
 40
0.5
 40
0.5
 40
1.0
 40
1.0
 40
1.0
 40
1.0
 10
109.7561484150619
 20
14.6
 30
0.0
 10
109.8155840664931
 20
14.6
 30
0.0
 10
109.873654384288
 20
14.57308380224897
 30
0.0
 10
109.9495154865062
 20
14.48376472356068
 30
0.0
 10
109.9665592887139
 20
14.42161346407491
 30
0.0
 10
109.9554847021401
 20
14.36319446847651
 30
0.0
  0
LWPOLYLINE
  5
14F
330
FD
100
AcDbEntity
  8
0
  6
Continuous
 62
     8
370
    25
100
AcDbPolyline
 90
        3
 70
   128
 43
0.0
 10
-90.5552094066
 20
-3.2940376808
 10
-90.3503172791
 20
-3.3940911646
 10
-87.9019444462
 20
-4.502628527
  0
SPLINE
  5
152
330
FD
100
AcDbEntity
  8
0
  6
Continuous
 62
     8
370
    25
100
AcDbSpline
210
0.0
220
0.0
230
1.0
 70
     8
 71
     3
 72
    10
 73
     6
 74
     0
 42
0.000000001
 43
0.00000001
 40
0.0
 40
0.0
 40
0.0
 40
0.0
 40
0.6123988055543045
 40
0.9273183105460442
 40
1.0
 40
1.0
 40
1.0
 40
1.0
 10
-71.03970093700904
 20
-12.74659839429868
 30
0.0
 10
-70.84301013183844
 20
-12.73908153716066
 30
0.0
 10
-70.5451731937248
 20
-12.72769921701467
 30
0.0
 10
-70.25986176742991
 20
-12.65461432890554
 30
0.0
 10
-70.16627656746361
 20
-12.60973811628156
 30
0.0
 10
-70.14872778139458
 20
-12.60132307784374
 30
0.0
  0
SPLINE
  5
153
330
FD
100
AcDbEntity
  8
0
  6
Continuous
 62
     8
370
    25
100
AcDbSpline
210
0.0
220
0.0
230
1.0
 70
     8
 71
     3
 72
    10
 73
     6
 74
     0
 42
0.000000001
 43
0.00000001
 40
0.0
 40
0.0
 40
0.0
 40
0.0
 40
0.6049258889923823
 40
0.9259170140365038
 40
1.0
 40
1.0
 40
1.0
 40
1.0
 10
71.0219233736128
 20
-12.74514225446159
 30
0.0
 10
70.83135079335193
 20
-12.73778464679616
 30
0.0
 10
70.53965490517251
 20
-12.7265228802823
 30
0.0
 10
70.25986569255906
 20
-12.65460767453491
 30
0.0
 10
70.1662771872673
 20
-12.60973706551275
 30
0.0
 10
70.1487277813946
 20
-12.60132307784374
 30
0.0
  0
SPLINE
  5
154
330
FD
100
AcDbEntity
  8
0
  6
Continuous
 62
     8
370
    25
100
AcDbSpline
210
0.0
220
0.0
230
1.0
 70
     8
 71
     3
 72
     9
 73
     5
 74
     0
 42
0.000000001
 43
0.00000001
 40
0.0
 40
0.0
 40
0.0
 40
0.0
 40
0.0302490291976009
 40
1.0
 40
1.0
 40
1.0
 40
1.0
 10
-109.6299086862588
 20
14.22584054467615
 30
0.0
 10
-109.6340815371154
 20
14.22994987837782
 30
0.0
 10
-109.7720314471537
 20
14.36579998037039
 30
0.0
 10
-109.8651667001404
 20
14.36447721828904
 30
0.0
 10
-109.9554847021401
 20
14.36319446847651
 30
0.0
  0
SPLINE
  5
156
330
FD
100
AcDbEntity
  8
0
  6
Continuous
 62
     8
370
    25
100
AcDbSpline
210
0.0
220
0.0
230
1.0
 70
     8
 71
     3
 72
    14
 73
    10
 74
     0
 42
0.000000001
 43
0.00000001
 40
0.0
 40
0.0
 40
0.0
 40
0.0
 40
0.2093826218504753
 40
0.3364555749896725
 40
0.4674517842271039
 40
0.606835499236263
 40
0.7512557677051445
 40
0.9105189248773441
 40
1.0
 40
1.0
 40
1.0
 40
1.0
 10
105.6000585511046
 20
0.0
 30
0.0
 10
105.699719151649
 20
0.4373708949257055
 30
0.0
 10
105.8598631233102
 20
1.140179345003588
 30
0.0
 10
105.9269842202452
 20
1.970662310953696
 30
0.0
 10
105.9112711625183
 20
2.576971895560161
 30
0.0
 10
105.8081702542656
 20
3.077879667147759
 30
0.0
 10
105.6016831662511
 20
3.44122718768786
 30
0.0
 10
105.3490538961903
 20
3.632576398061331
 30
0.0
 10
105.1259535151123
 20
3.620716932325657
 30
0.0
 10
105.0456973347983
 20
3.61645071182029
 30
0.0
  0
SPLINE
  5
157
330
FD
100
AcDbEntity
  8
0
  6
Continuous
 62
     8
370
    25
100
AcDbSpline
210
0.0
220
0.0
230
1.0
 70
     8
 71
     3
 72
    14
 73
    10
 74
     0
 42
0.000000001
 43
0.00000001
 40
0.0
 40
0.0
 40
0.0
 40
0.0
 40
0.0863772191120026
 40
0.248719878490072
 40
0.3906455100019556
 40
0.5325239578980461
 40
0.6615588307425483
 40
0.7905989949180539
 40
1.0
 40
1.0
 40
1.0
 40
1.0
 10
-105.0459183477027
 20
3.616837271661163
 30
0.0
 10
-105.1233037197943
 20
3.620797078336545
 30
0.0
 10
-105.3461319208108
 20
3.632199189278179
 30
0.0
 10
-105.5990664424089
 20
3.445797393347675
 30
0.0
 10
-105.8065111357893
 20
3.078919777480737
 30
0.0
 10
-105.9109903551533
 20
2.583711117416767
 30
0.0
 10
-105.926601950612
 20
1.973135345576592
 30
0.0
 10
-105.8609725319013
 20
1.144586373609975
 30
0.0
 10
-105.6997873642152
 20
0.437493767846621
 30
0.0
 10
-105.6000585511047
 20
0.0
 30
0.0
  0
LINE
  5
158
330
FD
100
AcDbEntity
  8
0
  6
Continuous
 62
     7
370
    25
100
AcDbLine
 10
-71.0917044597
 20
-12.7471834865
 30
0.0
 11
71.0917044597
 21
-12.7471834865
 31
0.0
  0
LINE
  5
159
330
FD
100
AcDbEntity
  8
0
  6
Continuous
 62
     7
370
    25
100
AcDbLine
 10
73.8305678779
 20
-12.3715095456
 30
0.0
 11
74.1686564237
 21
-12.2897350418
 31
0.0
  0
LINE
  5
15A
330
FD
100
AcDbEntity
  8
0
  6
Continuous
 62
     7
370
    25
100
AcDbLine
 10
102.1224555672
 20
1.5954182661
 30
0.0
 11
102.1955424322
 21
1.6689530476
 31
0.0
  0
LINE
  5
15B
330
FD
100
AcDbEntity
  8
0
  6
Continuous
 62
     7
370
    25
100
AcDbLine
 10
88.0
 20
-7.6151952284
 30
0.0
 11
88.0
 21
-4.7657077956
 31
0.0
  0
LINE
  5
15C
330
FD
100
AcDbEntity
  8
0
  6
Continuous
 62
     7
370
    25
100
AcDbLine
 10
70.2039463869
 20
-10.9624963917
 30
0.0
 11
70.2039463869
 21
-12.5647312819
 31
0.0
  0
LINE
  5
15D
330
FD
100
AcDbEntity
  8
0
  6
Continuous
 62
     7
370
    25
100
AcDbLine
 10
-88.0
 20
-7.6151952284
 30
0.0
 11
-88.0
 21
-4.7657077956
 31
0.0
  0
LINE
  5
15E
330
FD
100
AcDbEntity
  8
0
  6
Continuous
 62
     7
370
    25
100
AcDbLine
 10
-70.2039463869
 20
-12.5647312819
 30
0.0
 11
-70.2039463869
 21
-10.9624963917
 31
0.0
  0
LINE
  5
15F
330
FD
100
AcDbEntity
  8
0
  6
Continuous
 62
     7
370
    25
100
AcDbLine
 10
-74.1197262661
 20
-9.1266346993
 30
0.0
 11
74.1197262661
 21
-9.1266346993
 31
0.0
  0
LINE
  5
160
330
FD
100
AcDbEntity
  8
0
  6
Continuous
 62
     7
370
    25
100
AcDbLine
 10
69.7898068455
 20
-11.244007244
 30
0.0
 11
-69.7898068455
 21
-11.244007244
 31
0.0
  0
LINE
  5
161
330
FD
100
AcDbEntity
  8
0
  6
Continuous
 62
     7
370
    25
100
AcDbLine
 10
69.7898068455
 20
-12.3705487872
 30
0.0
 11
69.7898068455
 21
-11.244007244
 31
0.0
  0
LINE
  5
162
330
FD
100
AcDbEntity
  8
0
  6
Continuous
 62
     7
370
    25
100
AcDbLine
 10
-69.7898068455
 20
-11.244007244
 30
0.0
 11
-69.7898068455
 21
-12.3705487872
 31
0.0
  0
LINE
  5
163
330
FD
100
AcDbEntity
  8
0
  6
Continuous
 62
     7
370
    25
100
AcDbLine
 10
-106.9811031031
 20
10.9965933029
 30
0.0
 11
106.9811031031
 21
10.9965933029
 31
0.0
  0
LINE
  5
164
330
FD
100
AcDbEntity
  8
0
  6
Continuous
 62
     7
370
    25
100
AcDbLine
 10
-69.7898068455
 20
-12.3705487872
 30
0.0
 11
69.7898068455
 21
-12.3705487872
 31
0.0
  0
LINE
  5
165
330
FD
100
AcDbEntity
  8
0
  6
Continuous
 62
     7
370
    25
100
AcDbLine
 10
105.0456973348
 20
3.6164507118
 30
0.0
 11
104.8545235762
 21
3.6200691388
 31
0.0
  0
LINE
  5
166
330
FD
100
AcDbEntity
  8
0
  6
Continuous
 62
     7
370
    25
100
AcDbLine
 10
-104.886980918
 20
3.6195318587
 30
0.0
 11
-105.0459183477
 21
3.6168372717
 31
0.0
  0
LINE
  5
167
330
FD
100
AcDbEntity
  8
0
  6
Continuous
 62
     7
370
    25
100
AcDbLine
 10
-105.6000585511
 20
0.0
 30
0.0
 11
-100.3696770612
 21
0.0
 31
0.0
  0
LINE
  5
168
330
FD
100
AcDbEntity
  8
0
  6
Continuous
 62
     7
370
    25
100
AcDbLine
 10
100.3696770612
 20
0.0
 30
0.0
 11
105.6000585511
 21
0.0
 31
0.0
  0
LINE
  5
169
330
FD
100
AcDbEntity
  8
0
  6
Continuous
 62
     7
370
    25
100
AcDbLine
 10
-109.7561484151
 20
14.6
 30
0.0
 11
109.7561484151
 21
14.6
 31
0.0
  0
LINE
  5
16A
330
FD
100
AcDbEntity
  8
0
  6
Continuous
 62
     8
370
    25
100
AcDbLine
 10
-87.9019444462
 20
-4.502628527
 30
0.0
 11
-86.9659055673
 21
-4.8910279878
 31
0.0
  0
LINE
  5
16B
330
FD
100
AcDbEntity
  8
0
  6
Continuous
 62
     8
370
    25
100
AcDbLine
 10
-75.4464321957
 20
-8.7769100465
 30
0.0
 11
-74.1197262661
 21
-9.1266346993
 31
0.0
  0
LINE
  5
16C
330
FD
100
AcDbEntity
  8
0
  6
Continuous
 62
     8
370
    25
100
AcDbLine
 10
74.1197262661
 20
-9.1266346993
 30
0.0
 11
74.8361675992
 21
-8.9401320868
 31
0.0
  0
LINE
  5
16D
330
FD
100
AcDbEntity
  8
0
  6
Continuous
 62
     8
370
    25
100
AcDbLine
 10
86.5297957174
 20
-5.0679753059
 30
0.0
 11
87.9019444462
 21
-4.502628527
 31
0.0
  0
LINE
  5
16E
330
FD
100
AcDbEntity
  8
0
  6
Continuous
 62
     8
370
    25
100
AcDbLine
 10
87.9019444462
 20
-4.502628527
 30
0.0
 11
88.5844297573
 21
-4.2092793294
 31
0.0
  0
LINE
  5
16F
330
FD
100
AcDbEntity
  8
0
  6
Continuous
 62
     8
370
    25
100
AcDbLine
 10
109.9554847021
 20
14.3631944685
 30
0.0
 11
109.7507306078
 21
14.2813503473
 31
0.0
  0
ARC
  5
170
330
FD
100
AcDbEntity
  8
0
  6
Continuous
 62
     7
370
    25
100
AcDbCircle
 10
73.4155660407
 20
-9.4377972903
 30
0.0
 40
0.7698465958555735
100
AcDbArc
 50
2.7492700829
 51
23.8402396329
  0
ARC
  5
171
330
FD
100
AcDbEntity
  8
0
  6
Continuous
 62
     7
370
    25
100
AcDbCircle
 10
70.3477727948
 20
-10.6854965783
 30
0.0
 40
0.3121136527043433
100
AcDbArc
 50
230.377056789
 51
242.5603401992
  0
ARC
  5
172
330
FD
100
AcDbEntity
  8
0
  6
Continuous
 62
     7
370
    25
100
AcDbCircle
 10
49.7299153434
 20
86.3946829505
 30
0.0
 40
98.86767024971138
100
AcDbArc
 50
284.3205704269
 51
292.7731731966
  0
ARC
  5
173
330
FD
100
AcDbEntity
  8
0
  6
Continuous
 62
     7
370
    25
100
AcDbCircle
 10
49.7299153434
 20
83.5451955177
 30
0.0
 40
98.86767024970817
100
AcDbArc
 50
284.3205704269
 51
292.7731731966
  0
ARC
  5
174
330
FD
100
AcDbEntity
  8
0
  6
Continuous
 62
     7
370
    25
100
AcDbCircle
 10
-49.7299153434
 20
83.5451955177
 30
0.0
 40
98.86767024970848
100
AcDbArc
 50
247.2268268034
 51
255.6794295731
  0
ARC
  5
175
330
FD
100
AcDbEntity
  8
0
  6
Continuous
 62
     7
370
    25
100
AcDbCircle
 10
-49.7299153434
 20
86.3946829505
 30
0.0
 40
98.86767024970865
100
AcDbArc
 50
247.2268268034
 51
255.6794295731
  0
ARC
  5
176
330
FD
100
AcDbEntity
  8
0
  6
Continuous
 62
     7
370
    25
100
AcDbCircle
 10
-73.4155660407
 20
-9.4377972903
 30
0.0
 40
0.7698465958547843
100
AcDbArc
 50
156.1597603671
 51
177.2507299171
  0
ARC
  5
177
330
FD
100
AcDbEntity
  8
0
  6
Continuous
 62
     7
370
    25
100
AcDbCircle
 10
-70.3477727948
 20
-10.6854965783
 30
0.0
 40
0.3121136527037874
100
AcDbArc
 50
297.4396598008
 51
309.622943211
  0
ARC
  5
178
330
FD
100
AcDbEntity
  8
0
  6
Continuous
 62
     7
370
    25
100
AcDbCircle
 10
67.6735769383
 20
-8.4946872051
 30
0.0
 40
3.469465332947169
100
AcDbArc
 50
307.586503074
 51
315.5130340828
  0
ARC
  5
179
330
FD
100
AcDbEntity
  8
0
  6
Continuous
 62
     7
370
    25
100
AcDbCircle
 10
-67.6735769384
 20
-8.4946872051
 30
0.0
 40
3.469465332946445
100
AcDbArc
 50
224.4869659172
 51
232.413496926
  0
ARC
  5
17A
330
FD
100
AcDbEntity
  8
0
  6
Continuous
 62
     7
370
    25
100
AcDbCircle
 10
68.0772255955
 20
-8.2791923304
 30
0.0
 40
3.423895735831873
100
AcDbArc
 50
300.0122395111
 51
308.3994780364
  0
ARC
  5
17B
330
FD
100
AcDbEntity
  8
0
  6
Continuous
 62
     7
370
    25
100
AcDbCircle
 10
-68.0772255955
 20
-8.2791923304
 30
0.0
 40
3.423895735832041
100
AcDbArc
 50
231.6005219636
 51
239.9877604889
  0
ARC
  5
17C
330
FD
100
AcDbEntity
  8
0
  6
Continuous
 62
     7
370
    25
100
AcDbCircle
 10
71.1004007637
 20
-10.1141169477
 30
0.0
 40
2.609433092628424
100
AcDbArc
 50
239.8508731223
 51
249.9070750663
  0
ARC
  5
17D
330
FD
100
AcDbEntity
  8
0
  6
Continuous
 62
     7
370
    25
100
AcDbCircle
 10
-71.1004007637
 20
-10.1141169477
 30
0.0
 40
2.609433092628379
100
AcDbArc
 50
290.0929249338
 51
300.1491268777
  0
ARC
  5
17E
330
FD
100
AcDbEntity
  8
0
  6
Continuous
 62
     7
370
    25
100
AcDbCircle
 10
-87.4920748032
 20
-4.8052095395
 30
0.0
 40
0.5094589220831229
100
AcDbArc
 50
143.5638773617
 51
175.553013108
  0
ARC
  5
17F
330
FD
100
AcDbEntity
  8
0
  6
Continuous
 62
     7
370
    25
100
AcDbCircle
 10
-49.7557786794
 20
86.3988998624
 30
0.0
 40
98.58217115632254
100
AcDbArc
 50
247.824001292
 51
254.8942489019
  0
ARC
  5
180
330
FD
100
AcDbEntity
  8
0
  6
Continuous
 62
     7
370
    25
100
AcDbCircle
 10
87.4920748032
 20
-4.8052095395
 30
0.0
 40
0.5094589220831374
100
AcDbArc
 50
4.446986892
 51
36.4361226383
  0
ARC
  5
181
330
FD
100
AcDbEntity
  8
0
  6
Continuous
 62
     7
370
    25
100
AcDbCircle
 10
49.679201914
 20
86.6250762966
 30
0.0
 40
98.82095919313099
100
AcDbArc
 50
284.7481755432
 51
291.8947406403
  0
ARC
  5
182
330
FD
100
AcDbEntity
  8
0
  6
Continuous
 62
     7
370
    25
100
AcDbCircle
 10
-71.3194517803
 20
36.3635273408
 30
0.0
 40
44.07648845923686
100
AcDbArc
 50
228.457993954
 51
244.124464332
  0
ARC
  5
183
330
FD
100
AcDbEntity
  8
0
  6
Continuous
 62
     7
370
    25
100
AcDbCircle
 10
70.5862359562
 20
37.498653042
 30
0.0
 40
45.42561615208341
100
AcDbArc
 50
293.3416117483
 51
309.13809562
  0
ARC
  5
184
330
FD
100
AcDbEntity
  8
0
  6
Continuous
 62
     7
370
    25
100
AcDbCircle
 10
-70.0747058082
 20
-12.4296611809
 30
0.0
 40
0.1869413260605903
100
AcDbArc
 50
226.2634861383
 51
246.6739108503
  0
ARC
  5
185
330
FD
100
AcDbEntity
  8
0
  6
Continuous
 62
     7
370
    25
100
AcDbCircle
 10
-71.2856405681
 20
-10.4385938337
 30
0.0
 40
2.443351892003898
100
AcDbArc
 50
297.730199609
 51
307.749153977
  0
ARC
  5
186
330
FD
100
AcDbEntity
  8
0
  6
Continuous
 62
     7
370
    25
100
AcDbCircle
 10
71.2856405681
 20
-10.4385938337
 30
0.0
 40
2.443351892004984
100
AcDbArc
 50
232.250846023
 51
242.269800391
  0
ARC
  5
187
330
FD
100
AcDbEntity
  8
0
  6
Continuous
 62
     7
370
    25
100
AcDbCircle
 10
70.0747058082
 20
-12.4296611809
 30
0.0
 40
0.1869413260607009
100
AcDbArc
 50
293.3260891497
 51
313.7365138617
  0
ARC
  5
188
330
FD
100
AcDbEntity
  8
0
  6
Continuous
 62
     7
370
    25
100
AcDbCircle
 10
-73.1641290768
 20
33.074931885
 30
0.0
 40
40.64501294732499
100
AcDbArc
 50
213.2299202514
 51
248.5917492659
  0
ARC
  5
189
330
FD
100
AcDbEntity
  8
0
  6
Continuous
 62
     7
370
    25
100
AcDbCircle
 10
-106.9164247191
 20
10.7542106036
 30
0.0
 40
0.2508638401144124
100
AcDbArc
 50
104.9409059635
 51
169.1436334828
  0
ARC
  5
18A
330
FD
100
AcDbEntity
  8
0
  6
Continuous
 62
     7
370
    25
100
AcDbCircle
 10
106.9164247191
 20
10.7542106036
 30
0.0
 40
0.2508638401144569
100
AcDbArc
 50
10.8563665172
 51
75.0590940365
  0
ARC
  5
18B
330
FD
100
AcDbEntity
  8
0
  6
Continuous
 62
     7
370
    25
100
AcDbCircle
 10
73.1641290768
 20
33.074931885
 30
0.0
 40
40.64501294732516
100
AcDbArc
 50
291.4082507341
 51
326.7700797486
  0
ARC
  5
18C
330
FD
100
AcDbEntity
  8
0
  6
Continuous
 62
     7
370
    25
100
AcDbCircle
 10
-36.6658687119
 20
28.1215567092
 30
0.0
 40
74.56983534613765
100
AcDbArc
 50
190.6321606582
 51
201.9298732104
  0
ARC
  5
18D
330
FD
100
AcDbEntity
  8
0
  6
Continuous
 62
     7
370
    25
100
AcDbCircle
 10
-71.1453874192
 20
33.5222055658
 30
0.0
 40
44.456312367912
100
AcDbArc
 50
225.7905723684
 51
247.7203487249
  0
ARC
  5
18E
330
FD
100
AcDbEntity
  8
0
  6
Continuous
 62
     7
370
    25
100
AcDbCircle
 10
36.6658687119
 20
28.1215567092
 30
0.0
 40
74.56983534613818
100
AcDbArc
 50
338.0701267896
 51
349.3678393418
  0
ARC
  5
18F
330
FD
100
AcDbEntity
  8
0
  6
Continuous
 62
     7
370
    25
100
AcDbCircle
 10
71.1453874192
 20
33.5222055658
 30
0.0
 40
44.45631236791312
100
AcDbArc
 50
292.2796512751
 51
314.2094276316
  0
ARC
  5
190
330
FD
100
AcDbEntity
  8
0
  6
Continuous
 62
     7
370
    25
100
AcDbCircle
 10
102.0766180877
 20
1.6516019467
 30
0.0
 40
0.067552861739244
100
AcDbArc
 50
308.9369808797
 51
3.821163616
  0
ARC
  5
191
330
FD
100
AcDbEntity
  8
0
  6
Continuous
 62
     8
370
    25
100
AcDbCircle
 10
-77.2848207834
 20
29.5266654162
 30
0.0
 40
35.00332492972774
100
AcDbArc
 50
211.9635965717
 51
228.3448920529
  0
ARC
  5
192
330
FD
100
AcDbEntity
  8
0
  6
Continuous
 62
     8
370
    25
100
AcDbCircle
 10
77.0924028374
 20
29.651565114
 30
0.0
 40
35.23268903797439
100
AcDbArc
 50
308.9863022595
 51
328.0297348193
  0
VIEWPORT
  5
383
330
FD
100
AcDbEntity
  8
0
100
AcDbViewport
 10
0.0
 20
0.0
 30
0.0
 40
205.6
 41
156.0
 68
     1
 69
     1
 12
-13.0911322451
 22
0.9264697138
 13
0.0
 23
0.0
 14
10.0
 24
10.0
 15
10.0
 25
10.0
 16
0.0
 26
0.0
 36
1.0
 17
0.0
 27
0.0
 37
0.0
 42
50.0
 43
0.0
 44
0.0
 45
27.8940017838
 50
0.0
 51
0.0
 72
   100
 90
   557152
  1

281
     0
 71
     1
 74
     0
110
0.0
120
0.0
130
0.0
111
1.0
121
0.0
131
0.0
112
0.0
122
1.0
132
0.0
 79
     0
146
0.0
  0
ENDBLK
  5
100
330
FD
100
AcDbEntity
  8
0
100
AcDbBlockEnd
  0
BLOCK
  5
195
330
193
100
AcDbEntity
  8
0
100
AcDbBlockBegin
  2
*Paper_Space2
 70
     0
 10
0.0
 20
0.0
 30
0.0
  3
*Paper_Space2
  1

  0
SPLINE
  5
197
330
193
100
AcDbEntity
  8
0
  6
Continuous
 62
     7
370
    25
100
AcDbSpline
210
0.0
220
0.0
230
1.0
 70
     8
 71
     3
 72
    18
 73
    14
 74
     0
 42
0.000000001
 43
0.00000001
 40
0.0
 40
0.0
 40
0.0
 40
0.0
 40
0.1249999999999993
 40
0.1249999999999993
 40
0.2499999999999987
 40
0.2499999999999987
 40
0.4999999999999982
 40
0.4999999999999982
 40
0.6249999999999986
 40
0.6249999999999986
 40
0.7499999999999989
 40
0.7499999999999989
 40
1.0
 40
1.0
 40
1.0
 40
1.0
 10
0.0
 20
14.6
 30
0.0
 10
0.393607947803562
 20
14.6
 30
0.0
 10
0.7844372413380891
 20
14.57830645154818
 30
0.0
 10
1.560344954244895
 20
14.49263150022269
 30
0.0
 10
1.945892044426351
 20
14.42830441672136
 30
0.0
 10
3.071700529350336
 20
14.17768631233441
 30
0.0
 10
3.788988773904463
 20
13.93383907261005
 30
0.0
 10
4.815656416500941
 20
13.46038074970586
 30
0.0
 10
5.151550454465349
 20
13.28323467432987
 30
0.0
 10
5.79526607784338
 20
12.89915407652211
 30
0.0
 10
6.102839560855926
 20
12.69273367761805
 30
0.0
 10
6.98482980792404
 20
12.0332497438311
 30
0.0
 10
7.518853027509543
 20
11.54035575198369
 30
0.0
 10
8.000000000000005
 20
10.99659330286613
 30
0.0
  0
LWPOLYLINE
  5
198
330
193
100
AcDbEntity
  8
0
  6
Continuous
 62
     7
370
    25
100
AcDbPolyline
 90
        9
 70
   128
 43
0.0
 10
8.0
 20
10.9965933029
 10
8.0079281129
 20
10.9818342728
 10
8.009795513
 20
10.9625492053
 10
8.0055304372
 20
10.9394792145
 10
7.9952967901
 20
10.9135108673
 10
7.9794878449
 20
10.8856421127
 10
7.9587111304
 20
10.8569439313
 10
7.9337650843
 20
10.8285191782
 10
7.9056083691
 20
10.8014602007
  0
SPLINE
  5
199
330
193
100
AcDbEntity
  8
0
  6
Continuous
 62
     7
370
    25
100
AcDbSpline
210
0.0
220
0.0
230
1.0
 70
     8
 71
     3
 72
    18
 73
    14
 74
     0
 42
0.000000001
 43
0.00000001
 40
0.0
 40
0.0
 40
0.0
 40
0.0
 40
0.2499999999999999
 40
0.2499999999999999
 40
0.3749999999999998
 40
0.3749999999999998
 40
0.4999999999999996
 40
0.4999999999999996
 40
0.7499999999999993
 40
0.7499999999999993
 40
0.8749999999999997
 40
0.8749999999999997
 40
1.0
 40
1.0
 40
1.0
 40
1.0
 10
7.905608369075923
 20
10.80146020065695
 30
0.0
 10
7.430886565248519
 20
11.33796132288695
 30
0.0
 10
6.903913870249165
 20
11.82472709654921
 30
0.0
 10
6.033219922332885
 20
12.47648858499741
 30
0.0
 10
5.729533020088481
 20
12.68058125077431
 30
0.0
 10
5.093803553030888
 20
13.06047148768758
 30
0.0
 10
4.762089991208836
 20
13.2357161533025
 30
0.0
 10
3.74782978605427
 20
13.70430150908318
 30
0.0
 10
3.038798298542157
 20
13.94590321292176
 30
0.0
 10
1.925156992035023
 20
14.19409640918498
 30
0.0
 10
1.543666573435222
 20
14.25775722436552
 30
0.0
 10
0.7761583904581995
 20
14.34230165603221
 30
0.0
 10
0.3894892656246523
 20
14.36355781984541
 30
0.0
 10
0.0000000000000035
 20
14.36319446847651
 30
0.0
  0
SPLINE
  5
19A
330
193
100
AcDbEntity
  8
0
  6
Continuous
 62
     7
370
    25
100
AcDbSpline
210
0.0
220
0.0
230
1.0
 70
    24
 71
     3
 72
    10
 73
     6
 74
     0
 42
0.000000001
 43
0.00000001
 40
0.0
 40
0.0
 40
0.0
 40
0.0
 40
0.5
 40
0.5
 40
1.0
 40
1.0
 40
1.0
 40
1.0
 10
0.0000000000000069
 20
14.36319446847651
 30
0.0
 10
0.0000000000000069
 20
14.42158886884757
 30
0.0
 10
0.0
 20
14.4835174975888
 30
0.0
 10
0.0
 20
14.57303241091517
 30
0.0
 10
0.0
 20
14.6000000000044
 30
0.0
 10
0.0
 20
14.60000000000451
 30
0.0
  0
SPLINE
  5
19F
330
193
100
AcDbEntity
  8
0
  6
Continuous
 62
     7
370
    25
100
AcDbSpline
210
0.0
220
0.0
230
1.0
 70
     8
 71
     3
 72
    30
 73
    26
 74
     0
 42
0.000000001
 43
0.00000001
 40
0.0
 40
0.0
 40
0.0
 40
0.0
 40
0.0625
 40
0.0625
 40
0.1250000000000001
 40
0.1250000000000001
 40
0.1875000000000001
 40
0.1875000000000001
 40
0.2500000000000002
 40
0.2500000000000002
 40
0.3750000000000003
 40
0.3750000000000003
 40
0.4375000000000003
 40
0.4375000000000003
 40
0.5000000000000003
 40
0.5000000000000003
 40
0.5625000000000003
 40
0.5625000000000003
 40
0.6250000000000004
 40
0.6250000000000004
 40
0.7500000000000004
 40
0.7500000000000004
 40
0.8750000000000002
 40
0.8750000000000002
 40
1.0
 40
1.0
 40
1.0
 40
1.0
 10
0.0000000000000121
 20
0.271849001118092
 30
0.0
 10
0.1187621484949591
 20
0.5174106052125529
 30
0.0
 10
0.2535408708311034
 20
0.7548956638892357
 30
0.0
 10
0.5557138409847759
 20
1.213268069435287
 30
0.0
 10
0.7242609521468848
 20
1.435194083986717
 30
0.0
 10
1.085784633563565
 20
1.850215118183552
 30
0.0
 10
1.279430397610476
 20
2.044678556279322
 30
0.0
 10
1.692404788545675
 20
2.407591574703131
 30
0.0
 10
1.913537563828635
 20
2.577201487309075
 30
0.0
 10
2.604333506485689
 20
3.036583873732191
 30
0.0
 10
3.09205008886612
 20
3.273381893045812
 30
0.0
 10
3.861131118602963
 20
3.531110322648739
 30
0.0
 10
4.123935901934935
 20
3.600149503822039
 30
0.0
 10
4.642918190009624
 20
3.701777973783566
 30
0.0
 10
4.901500626137431
 20
3.735264614524919
 30
0.0
 10
5.416625319448443
 20
3.769995020284904
 30
0.0
 10
5.673167706483505
 20
3.771226035600537
 30
0.0
 10
6.183895056801013
 20
3.742350728326117
 30
0.0
 10
6.436788070056362
 20
3.71207330271719
 30
0.0
 10
7.170183493587439
 20
3.579966369330244
 30
0.0
 10
7.632913429400445
 20
3.437067388200886
 30
0.0
 10
8.508622994412114
 20
3.055056537506272
 30
0.0
 10
8.909051274803712
 20
2.821009970933622
 30
0.0
 10
9.63530104030657
 20
2.287764796220436
 30
0.0
 10
9.962878685236536
 20
1.98757464781689
 30
0.0
 10
10.256179883353
 20
1.65610383549647
 30
0.0
  0
LWPOLYLINE
  5
1A2
330
193
100
AcDbEntity
  8
0
  6
Continuous
 62
     7
370
    25
100
AcDbPolyline
 90
        9
 70
   128
 43
0.0
 10
10.2561798834
 20
1.6561038355
 10
10.2254273341
 20
1.6319785084
 10
10.1927935426
 20
1.6122419681
 10
10.159532607
 20
1.5976526788
 10
10.1269227264
 20
1.5887712986
 10
10.0962170804
 20
1.5859391341
 10
10.0685956696
 20
1.5892650238
 10
10.0451199693
 20
1.5986211555
 10
10.0266921376
 20
1.6136479784
  0
SPLINE
  5
1A3
330
193
100
AcDbEntity
  8
0
  6
Continuous
 62
     7
370
    25
100
AcDbSpline
210
0.0
220
0.0
230
1.0
 70
     8
 71
     3
 72
    30
 73
    26
 74
     0
 42
0.000000001
 43
0.00000001
 40
0.0
 40
0.0
 40
0.0
 40
0.0
 40
0.1249999999999989
 40
0.1249999999999989
 40
0.1874999999999982
 40
0.1874999999999982
 40
0.2499999999999976
 40
0.2499999999999976
 40
0.3749999999999978
 40
0.3749999999999978
 40
0.4374999999999979
 40
0.4374999999999979
 40
0.499999999999998
 40
0.499999999999998
 40
0.5624999999999981
 40
0.5624999999999981
 40
0.6249999999999982
 40
0.6249999999999982
 40
0.7499999999999989
 40
0.7499999999999989
 40
0.8749999999999996
 40
0.8749999999999996
 40
0.9374999999999998
 40
0.9374999999999998
 40
1.0
 40
1.0
 40
1.0
 40
1.0
 10
10.02669213764656
 20
1.613647978371244
 30
0.0
 10
9.739202105231866
 20
1.938551371846923
 30
0.0
 10
9.417170211871163
 20
2.232401622569093
 30
0.0
 10
8.880080673460126
 20
2.622792620274654
 30
0.0
 10
8.691984010114638
 20
2.74445593547655
 30
0.0
 10
8.296421863336336
 20
2.969192105290062
 30
0.0
 10
8.087799175814014
 20
3.07275024395176
 30
0.0
 10
7.438283986866783
 20
3.348148314390949
 30
0.0
 10
6.979790085963603
 20
3.483438661472288
 30
0.0
 10
6.251346477676928
 20
3.602482245600201
 30
0.0
 10
5.999685981675499
 20
3.628029764742446
 30
0.0
 10
5.494454151865138
 20
3.646738996239642
 30
0.0
 10
5.240549867374508
 20
3.640244057271923
 30
0.0
 10
4.730485730166319
 20
3.594318137958457
 30
0.0
 10
4.474325961260175
 20
3.554903901868692
 30
0.0
 10
3.959961805021678
 20
3.440289189819707
 30
0.0
 10
3.700222314543399
 20
3.364235356487368
 30
0.0
 10
2.946390559484353
 20
3.086894221376512
 30
0.0
 10
2.467320892013352
 20
2.835297961185644
 30
0.0
 10
1.571488516371995
 20
2.192344222251567
 30
0.0
 10
1.176557101002281
 20
1.817260394255754
 30
0.0
 10
0.6622997735325677
 20
1.175598242321977
 30
0.0
 10
0.5058535045067494
 20
0.950132322356462
 30
0.0
 10
0.2282518781453243
 20
0.4865353232759789
 30
0.0
 10
0.1059719232131308
 20
0.2470259057675024
 30
0.0
 10
0.0
 20
-0.0000000000000022
 30
0.0
  0
SPLINE
  5
1A4
330
193
100
AcDbEntity
  8
0
  6
Continuous
 62
     7
370
    25
100
AcDbSpline
210
0.0
220
0.0
230
1.0
 70
    24
 71
     3
 72
    12
 73
     8
 74
     0
 42
0.000000001
 43
0.00000001
 40
0.0
 40
0.0
 40
0.0
 40
0.0
 40
0.25
 40
0.25
 40
0.5
 40
0.5
 40
1.0
 40
1.0
 40
1.0
 40
1.0
 10
0.0
 20
0.0
 30
0.0
 10
0.0
 20
-0.0000000000000056
 30
0.0
 10
0.0
 20
0.017083535670658
 30
0.0
 10
0.0
 20
0.0573071591295476
 30
0.0
 10
0.0
 20
0.0810272032124545
 30
0.0
 10
0.0
 20
0.1571867361716029
 30
0.0
 10
0.0
 20
0.2132770908637542
 30
0.0
 10
0.0
 20
0.2718490011180967
 30
0.0
  0
SPLINE
  5
1A7
330
193
100
AcDbEntity
  8
0
  6
Continuous
 62
     7
370
    25
100
AcDbSpline
210
0.0
220
0.0
230
1.0
 70
     8
 71
     3
 72
    16
 73
    12
 74
     0
 42
0.000000001
 43
0.00000001
 40
0.0
 40
0.0
 40
0.0
 40
0.0
 40
0.2500000000000024
 40
0.2500000000000024
 40
0.5000000000000049
 40
0.5000000000000049
 40
0.7500000000000073
 40
0.7500000000000073
 40
0.8750000000000037
 40
0.8750000000000037
 40
1.0
 40
1.0
 40
1.0
 40
1.0
 10
22.56128180358964
 20
-12.25035872033251
 30
0.0
 10
22.63916858011066
 20
-12.33838152163109
 30
0.0
 10
22.7268691152178
 20
-12.41398419872796
 30
0.0
 10
22.92118247944983
 20
-12.5411963644395
 30
0.0
 10
23.0276766402003
 20
-12.59291558848152
 30
0.0
 10
23.26471351915727
 20
-12.66768337900535
 30
0.0
 10
23.39510034461508
 20
-12.69140807582183
 30
0.0
 10
23.61958384918978
 20
-12.69023851384775
 30
0.0
 10
23.69929224233883
 20
-12.68382151730849
 30
0.0
 10
23.87818211331893
 20
-12.6486578865877
 30
0.0
 10
23.97668593812435
 20
-12.62151269034478
 30
0.0
 10
24.09605165861193
 20
-12.56473128192003
 30
0.0
  0
SPLINE
  5
1AA
330
193
100
AcDbEntity
  8
0
  6
Continuous
 62
     7
370
    25
100
AcDbSpline
210
0.0
220
0.0
230
1.0
 70
     8
 71
     3
 72
    16
 73
    12
 74
     0
 42
0.000000001
 43
0.00000001
 40
0.0
 40
0.0
 40
0.0
 40
0.0
 40
0.1250000000000002
 40
0.1250000000000002
 40
0.2500000000000005
 40
0.2500000000000005
 40
0.5000000000000003
 40
0.5000000000000003
 40
0.7500000000000001
 40
0.7500000000000001
 40
1.0
 40
1.0
 40
1.0
 40
1.0
 10
25.90679809950991
 20
-10.96249639166541
 30
0.0
 10
25.97768796259754
 20
-10.85093057753925
 30
0.0
 10
26.01662244073622
 20
-10.75646380246501
 30
0.0
 10
26.07330135202898
 20
-10.58318492931707
 30
0.0
 10
26.08937376460369
 20
-10.50485049667714
 30
0.0
 10
26.11786167365842
 20
-10.28217887581124
 30
0.0
 10
26.11018579651428
 20
-10.14987367409164
 30
0.0
 10
26.06482926746183
 20
-9.905497959754483
 30
0.0
 10
26.02645853638899
 20
-9.793499873135127
 30
0.0
 10
25.92384680632825
 20
-9.58514572396084
 30
0.0
 10
25.85948244217346
 20
-9.488894088809854
 30
0.0
 10
25.78159566565245
 20
-9.400871287511276
 30
0.0
  0
SPLINE
  5
1B1
330
193
100
AcDbEntity
  8
0
  6
Continuous
 62
     7
370
    25
100
AcDbSpline
210
0.0
220
0.0
230
1.0
 70
     8
 71
     3
 72
    16
 73
    12
 74
     0
 42
0.000000001
 43
0.00000001
 40
0.0
 40
0.0
 40
0.0
 40
0.0
 40
0.25
 40
0.25
 40
0.5
 40
0.5
 40
0.75
 40
0.75
 40
0.875
 40
0.875
 40
1.0
 40
1.0
 40
1.0
 40
1.0
 10
22.2861148137379
 20
-12.24119073050362
 30
0.0
 10
22.37659648920054
 20
-12.34344750496727
 30
0.0
 10
22.47854553860084
 20
-12.43104200761927
 30
0.0
 10
22.70446486376113
 20
-12.57801543638569
 30
0.0
 10
22.82829825982165
 20
-12.63752258604264
 30
0.0
 10
23.10395549746168
 20
-12.72280873305955
 30
0.0
 10
23.25578855493162
 20
-12.74927405718206
 30
0.0
 10
23.51512930880491
 20
-12.74595382989007
 30
0.0
 10
23.60698137511092
 20
-12.73778657188557
 30
0.0
 10
23.81161435074658
 20
-12.69604247278031
 30
0.0
 10
23.92412862686931
 20
-12.66353645938841
 30
0.0
 10
24.05469788168348
 20
-12.60132307784504
 30
0.0
  0
SPLINE
  5
1B2
330
193
100
AcDbEntity
  8
0
  6
Continuous
 62
     7
370
    25
100
AcDbSpline
210
0.0
220
0.0
230
1.0
 70
     8
 71
     3
 72
    16
 73
    12
 74
     0
 42
0.000000001
 43
0.00000001
 40
0.0
 40
0.0
 40
0.0
 40
0.0
 40
0.1250000000000001
 40
0.1250000000000001
 40
0.2500000000000001
 40
0.2500000000000001
 40
0.5000000000000001
 40
0.5000000000000001
 40
0.7500000000000001
 40
0.7500000000000001
 40
1.0
 40
1.0
 40
1.0
 40
1.0
 10
25.94815187643903
 20
-10.92590459573881
 30
0.0
 10
26.02579715402485
 20
-10.80387981950712
 30
0.0
 10
26.07175811424691
 20
-10.69615937867158
 30
0.0
 10
26.13810233899054
 20
-10.49812991528092
 30
0.0
 10
26.15739028161843
 20
-10.40795518790576
 30
0.0
 10
26.19225613796656
 20
-10.15094736197442
 30
0.0
 10
26.18447072953772
 20
-9.997021801598102
 30
0.0
 10
26.13337544143633
 20
-9.713032521747316
 30
0.0
 10
26.08938546116948
 20
-9.58287610632226
 30
0.0
 10
25.97100692253026
 20
-9.340745455982628
 30
0.0
 10
25.89647443145526
 20
-9.228891473744072
 30
0.0
 10
25.80599275599263
 20
-9.12663469928042
 30
0.0
  0
LINE
  5
1B9
330
193
100
AcDbEntity
  8
0
  6
Continuous
 62
     7
370
    25
100
AcDbLine
 10
0.0
 20
14.3631944685
 30
0.0
 11
0.0
 21
0.2718490011
 31
0.0
  0
LINE
  5
1BA
330
193
100
AcDbEntity
  8
0
  6
Continuous
 62
     7
370
    25
100
AcDbLine
 10
25.7815956657
 20
-9.4008712875
 30
0.0
 11
7.9056083691
 21
10.8014602007
 31
0.0
  0
LINE
  5
1BB
330
193
100
AcDbEntity
  8
0
  6
Continuous
 62
     7
370
    25
100
AcDbLine
 10
18.4598678778
 20
-7.6151952284
 30
0.0
 11
21.6801817399
 21
-4.7657077956
 31
0.0
  0
LINE
  5
1BC
330
193
100
AcDbEntity
  8
0
  6
Continuous
 62
     7
370
    25
100
AcDbLine
 10
10.2561798834
 20
1.6561038355
 30
0.0
 11
22.5612818036
 21
-12.2503587203
 31
0.0
  0
LINE
  5
1BD
330
193
100
AcDbEntity
  8
0
  6
Continuous
 62
     7
370
    25
100
AcDbLine
 10
8.0
 20
10.9965933029
 30
0.0
 11
25.805992756
 21
-9.1266346993
 31
0.0
  0
LINE
  5
1BE
330
193
100
AcDbEntity
  8
0
  6
Continuous
 62
     7
370
    25
100
AcDbLine
 10
22.2861148137
 20
-12.2411907305
 30
0.0
 11
10.0266921376
 21
1.6136479784
 31
0.0
  0
LINE
  5
1BF
330
193
100
AcDbEntity
  8
0
  6
Continuous
 62
     7
370
    25
100
AcDbLine
 10
24.0960516586
 20
-12.5647312819
 30
0.0
 11
25.9067980995
 21
-10.9624963917
 31
0.0
  0
LINE
  5
1C0
330
193
100
AcDbEntity
  8
0
  6
Continuous
 62
     7
370
    25
100
AcDbLine
 10
25.6766346993
 20
-11.244007244
 30
0.0
 11
24.4034873585
 21
-12.3705487872
 31
0.0
  0
ARC
  5
1C1
330
193
100
AcDbEntity
  8
0
  6
Continuous
 62
     7
370
    25
100
AcDbCircle
 10
21.5645321581
 20
-4.6168712052
 30
0.0
 40
0.1884864886238361
100
AcDbArc
 50
307.8480591443
 51
37.3084274946
  0
ARC
  5
1C2
330
193
100
AcDbEntity
  8
0
  6
Continuous
 62
     7
370
    25
100
AcDbCircle
 10
18.32621657
 20
-7.4822874246
 30
0.0
 40
0.1884864886238242
100
AcDbArc
 50
225.6994443479
 51
315.1598126983
  0
ARC
  5
1C3
330
193
100
AcDbEntity
  8
0
  6
Continuous
 62
     7
370
    25
100
AcDbCircle
 10
22.4282893533
 20
-12.1079796402
 30
0.0
 40
0.1948301677896856
100
AcDbArc
 50
223.1357539634
 51
313.0477062501
  0
ARC
  5
1C4
330
193
100
AcDbEntity
  8
0
  6
Continuous
 62
     7
370
    25
100
AcDbCircle
 10
25.6564650419
 20
-9.251535688
 30
0.0
 40
0.1948301677896748
100
AcDbArc
 50
309.9601655925
 51
39.8721178791
  0
ARC
  5
1C5
330
193
100
AcDbEntity
  8
0
  6
Continuous
 62
     7
370
    25
100
AcDbCircle
 10
24.0095759496
 20
-12.5086654363
 30
0.0
 40
0.1030603089994231
100
AcDbArc
 50
295.9649128626
 51
327.0429589795
  0
ARC
  5
1C6
330
193
100
AcDbEntity
  8
0
  6
Continuous
 62
     7
370
    25
100
AcDbCircle
 10
25.8616761674
 20
-10.8698387501
 30
0.0
 40
0.1030603089994031
100
AcDbArc
 50
295.9649128631
 51
327.04295898
  0
ARC
  5
1C7
330
193
100
AcDbEntity
  8
0
  6
Continuous
 62
     7
370
    25
100
AcDbCircle
 10
24.9208459018
 20
-10.391227705
 30
0.0
 40
1.139495348206741
100
AcDbArc
 50
311.5494532964
 51
329.9116501575
  0
ARC
  5
1C8
330
193
100
AcDbEntity
  8
0
  6
Continuous
 62
     7
370
    25
100
AcDbCircle
 10
23.6490544584
 20
-11.5165694855
 30
0.0
 40
1.139495348206739
100
AcDbArc
 50
293.0962216851
 51
311.4584185462
  0
ARC
  5
1C9
330
193
100
AcDbEntity
  8
0
  6
Continuous
 62
     7
370
    25
100
AcDbCircle
 10
24.6826274553
 20
-10.1206419433
 30
0.0
 40
1.500000000000226
100
AcDbArc
 50
311.5039359213
 51
327.5310979786
  0
ARC
  5
1CA
330
193
100
AcDbEntity
  8
0
  6
Continuous
 62
     7
370
    25
100
AcDbCircle
 10
23.4094801145
 20
-11.2471834865
 30
0.0
 40
1.500000000000042
100
AcDbArc
 50
295.476773864
 51
311.5039359213
  0
VIEWPORT
  5
385
330
193
100
AcDbEntity
  8
0
100
AcDbViewport
 10
0.0
 20
0.0
 30
0.0
 40
205.6
 41
156.0
 68
     1
 69
     1
 12
-13.0911322451
 22
0.9264697138
 13
0.0
 23
0.0
 14
10.0
 24
10.0
 15
10.0
 25
10.0
 16
0.0
 26
0.0
 36
1.0
 17
0.0
 27
0.0
 37
0.0
 42
50.0
 43
0.0
 44
0.0
 45
27.8940017838
 50
0.0
 51
0.0
 72
   100
 90
   557152
  1

281
     0
 71
     1
 74
     0
110
0.0
120
0.0
130
0.0
111
1.0
121
0.0
131
0.0
112
0.0
122
1.0
132
0.0
 79
     0
146
0.0
  0
ENDBLK
  5
196
330
193
100
AcDbEntity
  8
0
100
AcDbBlockEnd
  0
BLOCK
  5
1CD
330
1CB
100
AcDbEntity
  8
0
100
AcDbBlockBegin
  2
*Paper_Space3
 70
     0
 10
0.0
 20
0.0
 30
0.0
  3
*Paper_Space3
  1

  0
SPLINE
  5
1D0
330
1CB
100
AcDbEntity
  8
0
  6
Continuous
 62
     7
370
    25
100
AcDbSpline
210
0.0
220
0.0
230
1.0
 70
     8
 71
     3
 72
    16
 73
    12
 74
     0
 42
0.000000001
 43
0.00000001
 40
0.0
 40
0.0
 40
0.0
 40
0.0
 40
0.2500000000000024
 40
0.2500000000000024
 40
0.5000000000000049
 40
0.5000000000000049
 40
0.7500000000000073
 40
0.7500000000000073
 40
0.8750000000000037
 40
0.8750000000000037
 40
1.0
 40
1.0
 40
1.0
 40
1.0
 10
-74.18452654125589
 20
22.56128180358964
 30
0.0
 10
-73.84133568376416
 20
22.63916858011066
 30
0.0
 10
-73.49898436306258
 20
22.7268691152178
 30
0.0
 10
-72.81588978690912
 20
22.92118247944983
 30
0.0
 10
-72.47512954250655
 20
23.0276766402003
 30
0.0
 10
-71.79596463954032
 20
23.26471351915727
 30
0.0
 10
-71.45611559181344
 20
23.39510034461508
 30
0.0
 10
-70.96290743552663
 20
23.61958384918978
 30
0.0
 10
-70.80090407958068
 20
23.69929224233883
 30
0.0
 10
-70.48644200927198
 20
23.87818211331893
 30
0.0
 10
-70.33127450543816
 20
23.97668593812435
 30
0.0
 10
-70.20394638691015
 20
24.09605165861193
 30
0.0
  0
SPLINE
  5
1D4
330
1CB
100
AcDbEntity
  8
0
  6
Continuous
 62
     7
370
    25
100
AcDbSpline
210
0.0
220
0.0
230
1.0
 70
     8
 71
     3
 72
    16
 73
    12
 74
     0
 42
0.000000001
 43
0.00000001
 40
0.0
 40
0.0
 40
0.0
 40
0.0
 40
0.1250000000000002
 40
0.1250000000000002
 40
0.2500000000000005
 40
0.2500000000000005
 40
0.5000000000000003
 40
0.5000000000000003
 40
0.7500000000000001
 40
0.7500000000000001
 40
1.0
 40
1.0
 40
1.0
 40
1.0
 10
-70.20394638691262
 20
25.90679809950991
 30
0.0
 10
-70.33127450543975
 20
25.97768796259754
 30
0.0
 10
-70.48644200927187
 20
26.01662244073622
 30
0.0
 10
-70.80090407958059
 20
26.07330135202898
 30
0.0
 10
-70.96290743552655
 20
26.08937376460369
 30
0.0
 10
-71.45611559181339
 20
26.11786167365842
 30
0.0
 10
-71.79596463954023
 20
26.11018579651428
 30
0.0
 10
-72.4751295425065
 20
26.06482926746183
 30
0.0
 10
-72.8158897869091
 20
26.02645853638899
 30
0.0
 10
-73.49898436306255
 20
25.92384680632825
 30
0.0
 10
-73.84133568376413
 20
25.85948244217346
 30
0.0
 10
-74.18452654125589
 20
25.78159566565245
 30
0.0
  0
SPLINE
  5
1D7
330
1CB
100
AcDbEntity
  8
0
  6
Continuous
 62
     7
370
    25
100
AcDbSpline
210
0.0
220
0.0
230
1.0
 70
     8
 71
     3
 72
    16
 73
    12
 74
     0
 42
0.000000001
 43
0.00000001
 40
0.0
 40
0.0
 40
0.0
 40
0.0
 40
0.25
 40
0.25
 40
0.5
 40
0.5
 40
0.75
 40
0.75
 40
0.875
 40
0.875
 40
1.0
 40
1.0
 40
1.0
 40
1.0
 10
-74.11972626611426
 20
22.2861148137379
 30
0.0
 10
-73.77419710417564
 20
22.37659648920054
 30
0.0
 10
-73.42977645382767
 20
22.47854553860084
 30
0.0
 10
-72.74305236098839
 20
22.70446486376113
 30
0.0
 10
-72.40072657032258
 20
22.82829825982165
 30
0.0
 10
-71.71918220547755
 20
23.10395549746168
 30
0.0
 10
-71.37832422153481
 20
23.25578855493162
 30
0.0
 10
-70.88835863957091
 20
23.51512930880491
 30
0.0
 10
-70.72811910414428
 20
23.60698137511092
 30
0.0
 10
-70.4195364568951
 20
23.81161435074658
 30
0.0
 10
-70.26920457195799
 20
23.92412862686931
 30
0.0
 10
-70.14872778139325
 20
24.05469788168348
 30
0.0
  0
SPLINE
  5
1D9
330
1CB
100
AcDbEntity
  8
0
  6
Continuous
 62
     7
370
    25
100
AcDbSpline
210
0.0
220
0.0
230
1.0
 70
     8
 71
     3
 72
    16
 73
    12
 74
     0
 42
0.000000001
 43
0.00000001
 40
0.0
 40
0.0
 40
0.0
 40
0.0
 40
0.25
 40
0.25
 40
0.5
 40
0.5
 40
0.75
 40
0.75
 40
0.875
 40
0.875
 40
1.0
 40
1.0
 40
1.0
 40
1.0
 10
74.11972626611421
 20
22.2861148137379
 30
0.0
 10
73.77419710417561
 20
22.37659648920054
 30
0.0
 10
73.42977645382766
 20
22.47854553860082
 30
0.0
 10
72.74305236098837
 20
22.70446486376112
 30
0.0
 10
72.40072657032258
 20
22.82829825982166
 30
0.0
 10
71.71918220547755
 20
23.10395549746169
 30
0.0
 10
71.37832422153478
 20
23.25578855493161
 30
0.0
 10
70.88835863957088
 20
23.51512930880491
 30
0.0
 10
70.72811910414428
 20
23.60698137511093
 30
0.0
 10
70.4195364568951
 20
23.8116143507466
 30
0.0
 10
70.26920457195801
 20
23.9241286268693
 30
0.0
 10
70.14872778139326
 20
24.05469788168347
 30
0.0
  0
SPLINE
  5
1DB
330
1CB
100
AcDbEntity
  8
0
  6
Continuous
 62
     7
370
    25
100
AcDbSpline
210
0.0
220
0.0
230
1.0
 70
     8
 71
     3
 72
    16
 73
    12
 74
     0
 42
0.000000001
 43
0.00000001
 40
0.0
 40
0.0
 40
0.0
 40
0.0
 40
0.1250000000000004
 40
0.1250000000000004
 40
0.2500000000000007
 40
0.2500000000000007
 40
0.5000000000000004
 40
0.5000000000000004
 40
0.7500000000000002
 40
0.7500000000000002
 40
1.0
 40
1.0
 40
1.0
 40
1.0
 10
70.20394638691259
 20
24.09605165861373
 30
0.0
 10
70.33127450543971
 20
23.97668593812628
 30
0.0
 10
70.48644200927188
 20
23.878182113319
 30
0.0
 10
70.80090407958059
 20
23.69929224233888
 30
0.0
 10
70.96290743552649
 20
23.61958384918982
 30
0.0
 10
71.45611559181336
 20
23.3951003446151
 30
0.0
 10
71.7959646395402
 20
23.26471351915729
 30
0.0
 10
72.47512954250645
 20
23.0276766402003
 30
0.0
 10
72.81588978690907
 20
22.92118247944984
 30
0.0
 10
73.49898436306252
 20
22.72686911521781
 30
0.0
 10
73.84133568376413
 20
22.63916858011066
 30
0.0
 10
74.18452654125585
 20
22.56128180358964
 30
0.0
  0
SPLINE
  5
1DD
330
1CB
100
AcDbEntity
  8
0
  6
Continuous
 62
     7
370
    25
100
AcDbSpline
210
0.0
220
0.0
230
1.0
 70
     8
 71
     3
 72
    16
 73
    12
 74
     0
 42
0.000000001
 43
0.00000001
 40
0.0
 40
0.0
 40
0.0
 40
0.0
 40
0.2500000000000022
 40
0.2500000000000022
 40
0.5000000000000044
 40
0.5000000000000044
 40
0.7500000000000067
 40
0.7500000000000067
 40
0.8750000000000033
 40
0.8750000000000033
 40
1.0
 40
1.0
 40
1.0
 40
1.0
 10
74.18452654125586
 20
25.78159566565245
 30
0.0
 10
73.84133568376414
 20
25.85948244217347
 30
0.0
 10
73.49898436306255
 20
25.92384680632825
 30
0.0
 10
72.81588978690912
 20
26.02645853638898
 30
0.0
 10
72.47512954250648
 20
26.06482926746181
 30
0.0
 10
71.79596463954027
 20
26.11018579651427
 30
0.0
 10
71.4561155918134
 20
26.11786167365842
 30
0.0
 10
70.9629074355266
 20
26.0893737646037
 30
0.0
 10
70.80090407958068
 20
26.07330135202899
 30
0.0
 10
70.48644200927198
 20
26.01662244073625
 30
0.0
 10
70.33127450543822
 20
25.97768796260008
 30
0.0
 10
70.20394638691015
 20
25.90679809951268
 30
0.0
  0
LWPOLYLINE
  5
1F4
330
1CB
100
AcDbEntity
  8
0
  6
Continuous
 62
     7
370
    25
100
AcDbPolyline
 90
        9
 70
   128
 43
0.0
 10
-74.1845265413
 20
25.7815956657
 10
-74.1832814221
 20
25.8084074554
 10
-74.179593914
 20
25.8293704099
 10
-74.1736057258
 20
25.8436789344
 10
-74.1655469801
 20
25.8507831604
 10
-74.1557273701
 20
25.8504100765
 10
-74.1445242578
 20
25.84257402
 10
-74.1323681727
 20
25.8275761263
 10
-74.1197262661
 20
25.805992756
  0
SPLINE
  5
1F5
330
1CB
100
AcDbEntity
  8
0
  6
Continuous
 62
     7
370
    25
100
AcDbSpline
210
0.0
220
0.0
230
1.0
 70
     8
 71
     3
 72
    16
 73
    12
 74
     0
 42
0.000000001
 43
0.00000001
 40
0.0
 40
0.0
 40
0.0
 40
0.0
 40
0.1250000000000001
 40
0.1250000000000001
 40
0.2500000000000001
 40
0.2500000000000001
 40
0.5000000000000001
 40
0.5000000000000001
 40
0.7500000000000001
 40
0.7500000000000001
 40
1.0
 40
1.0
 40
1.0
 40
1.0
 10
-70.14872778139463
 20
25.94815187643903
 30
0.0
 10
-70.26920457195892
 20
26.02579715402485
 30
0.0
 10
-70.41953645689507
 20
26.07175811424691
 30
0.0
 10
-70.72811910414426
 20
26.13810233899054
 30
0.0
 10
-70.88835863957084
 20
26.15739028161843
 30
0.0
 10
-71.37832422153474
 20
26.19225613796656
 30
0.0
 10
-71.71918220547752
 20
26.18447072953772
 30
0.0
 10
-72.40072657032255
 20
26.13337544143633
 30
0.0
 10
-72.74305236098837
 20
26.08938546116948
 30
0.0
 10
-73.42977645382766
 20
25.97100692253026
 30
0.0
 10
-73.77419710417564
 20
25.89647443145526
 30
0.0
 10
-74.11972626611426
 20
25.80599275599263
 30
0.0
  0
SPLINE
  5
1F7
330
1CB
100
AcDbEntity
  8
0
  6
Continuous
 62
     7
370
    25
100
AcDbSpline
210
0.0
220
0.0
230
1.0
 70
     8
 71
     3
 72
    16
 73
    12
 74
     0
 42
0.000000001
 43
0.00000001
 40
0.0
 40
0.0
 40
0.0
 40
0.0
 40
0.1249999999999999
 40
0.1249999999999999
 40
0.2499999999999998
 40
0.2499999999999998
 40
0.4999999999999999
 40
0.4999999999999999
 40
0.7499999999999999
 40
0.7499999999999999
 40
1.0
 40
1.0
 40
1.0
 40
1.0
 10
70.14872778139457
 20
25.94815187643906
 30
0.0
 10
70.2692045719589
 20
26.02579715402486
 30
0.0
 10
70.41953645689507
 20
26.07175811424692
 30
0.0
 10
70.72811910414421
 20
26.13810233899052
 30
0.0
 10
70.88835863957081
 20
26.15739028161842
 30
0.0
 10
71.37832422153473
 20
26.19225613796656
 30
0.0
 10
71.71918220547752
 20
26.18447072953771
 30
0.0
 10
72.40072657032255
 20
26.13337544143634
 30
0.0
 10
72.74305236098836
 20
26.08938546116948
 30
0.0
 10
73.4297764538276
 20
25.97100692253026
 30
0.0
 10
73.77419710417564
 20
25.89647443145529
 30
0.0
 10
74.11972626611424
 20
25.80599275599264
 30
0.0
  0
LWPOLYLINE
  5
1FA
330
1CB
100
AcDbEntity
  8
0
  6
Continuous
 62
     7
370
    25
100
AcDbPolyline
 90
        9
 70
   128
 43
0.0
 10
74.1197262661
 20
25.805992756
 10
74.1323681727
 20
25.8275761263
 10
74.1445242578
 20
25.84257402
 10
74.1557273701
 20
25.8504100765
 10
74.1655469801
 20
25.8507831604
 10
74.1736057258
 20
25.8436789344
 10
74.179593914
 20
25.8293704099
 10
74.1832814221
 20
25.8084074554
 10
74.1845265413
 20
25.7815956657
  0
SPLINE
  5
203
330
1CB
100
AcDbEntity
  8
0
  6
Continuous
 62
     7
370
    25
100
AcDbSpline
210
0.0
220
0.0
230
1.0
 70
     8
 71
     3
 72
    18
 73
    14
 74
     0
 42
0.000000001
 43
0.00000001
 40
0.0
 40
0.0
 40
0.0
 40
0.0
 40
0.2499999999999999
 40
0.2499999999999999
 40
0.3749999999999998
 40
0.3749999999999998
 40
0.4999999999999996
 40
0.4999999999999996
 40
0.7499999999999993
 40
0.7499999999999993
 40
0.8749999999999997
 40
0.8749999999999997
 40
1.0
 40
1.0
 40
1.0
 40
1.0
 10
-107.162798706869
 20
7.905608369075923
 30
0.0
 10
-107.49235738509
 20
7.430886565248519
 30
0.0
 10
-107.7983166768912
 20
6.903913870249165
 30
0.0
 10
-108.2241355770053
 20
6.033219922332885
 30
0.0
 10
-108.3605448057226
 20
5.729533020088481
 30
0.0
 10
-108.6225752197159
 20
5.093803553030888
 30
0.0
 10
-108.7478912344712
 20
4.762089991208836
 30
0.0
 10
-109.0997634774992
 20
3.74782978605427
 30
0.0
 10
-109.3056206609729
 20
3.038798298542157
 30
0.0
 10
-109.5779173687119
 20
1.925156992035023
 30
0.0
 10
-109.662917522039
 20
1.543666573435222
 30
0.0
 10
-109.8189471032616
 20
0.7761583904581995
 30
0.0
 10
-109.8902198501578
 20
0.3894892656246523
 30
0.0
 10
-109.9554847021401
 20
0.0000000000000035
 30
0.0
  0
SPLINE
  5
205
330
1CB
100
AcDbEntity
  8
0
  6
Continuous
 62
     7
370
    25
100
AcDbSpline
210
0.0
220
0.0
230
1.0
 70
     8
 71
     3
 72
    30
 73
    26
 74
     0
 42
0.000000001
 43
0.00000001
 40
0.0
 40
0.0
 40
0.0
 40
0.0
 40
0.0625
 40
0.0625
 40
0.1250000000000001
 40
0.1250000000000001
 40
0.1875000000000001
 40
0.1875000000000001
 40
0.2500000000000002
 40
0.2500000000000002
 40
0.3750000000000003
 40
0.3750000000000003
 40
0.4375000000000003
 40
0.4375000000000003
 40
0.5000000000000003
 40
0.5000000000000003
 40
0.5625000000000003
 40
0.5625000000000003
 40
0.6250000000000004
 40
0.6250000000000004
 40
0.7500000000000004
 40
0.7500000000000004
 40
0.8750000000000002
 40
0.8750000000000002
 40
1.0
 40
1.0
 40
1.0
 40
1.0
 10
-105.8399543518194
 20
0.0000000000000121
 30
0.0
 10
-105.8968489148549
 20
0.1187621484949591
 30
0.0
 10
-105.944213325858
 20
0.2535408708311034
 30
0.0
 10
-106.0203590330763
 20
0.5557138409847759
 30
0.0
 10
-106.0491462656306
 20
0.7242609521468848
 30
0.0
 10
-106.086707339697
 20
1.085784633563565
 30
0.0
 10
-106.0957907160559
 20
1.279430397610476
 30
0.0
 10
-106.0948041253456
 20
1.692404788545675
 30
0.0
 10
-106.0845628070585
 20
1.913537563828635
 30
0.0
 10
-106.0245754437753
 20
2.604333506485689
 30
0.0
 10
-105.9475821530048
 20
3.09205008886612
 30
0.0
 10
-105.7762212280056
 20
3.861131118602963
 30
0.0
 10
-105.7094069799308
 20
4.123935901934935
 30
0.0
 10
-105.5613395756678
 20
4.642918190009624
 30
0.0
 10
-105.4795923791991
 20
4.901500626137431
 30
0.0
 10
-105.3007008023051
 20
5.416625319448443
 30
0.0
 10
-105.2035531331098
 20
5.673167706483505
 30
0.0
 10
-104.9931734446449
 20
6.183895056801013
 30
0.0
 10
-104.8803310870935
 20
6.436788070056362
 30
0.0
 10
-104.5272132765753
 20
7.170183493587439
 30
0.0
 10
-104.2695611088065
 20
7.632913429400445
 30
0.0
 10
-103.7081374686781
 20
8.508622994412114
 30
0.0
 10
-103.4121057202254
 20
8.909051274803712
 30
0.0
 10
-102.7972368885434
 20
9.63530104030657
 30
0.0
 10
-102.4771838089381
 20
9.962878685236536
 30
0.0
 10
-102.1440207740175
 20
10.256179883353
 30
0.0
  0
SPLINE
  5
207
330
1CB
100
AcDbEntity
  8
0
  6
Continuous
 62
     7
370
    25
100
AcDbSpline
210
0.0
220
0.0
230
1.0
 70
     8
 71
     3
 72
    18
 73
    14
 74
     0
 42
0.000000001
 43
0.00000001
 40
0.0
 40
0.0
 40
0.0
 40
0.0
 40
0.1249999999999999
 40
0.1249999999999999
 40
0.2499999999999999
 40
0.2499999999999999
 40
0.5000000000000007
 40
0.5000000000000007
 40
0.6250000000000006
 40
0.6250000000000006
 40
0.7500000000000006
 40
0.7500000000000006
 40
1.0
 40
1.0
 40
1.0
 40
1.0
 10
109.9554847021401
 20
0.0
 30
0.0
 10
109.8902198501578
 20
0.3894892656246471
 30
0.0
 10
109.8189471032616
 20
0.7761583904581978
 30
0.0
 10
109.6629175220389
 20
1.54366657343522
 30
0.0
 10
109.5779173687118
 20
1.925156992035026
 30
0.0
 10
109.3056206609729
 20
3.03879829854216
 30
0.0
 10
109.0997634774991
 20
3.74782978605427
 30
0.0
 10
108.7478912344713
 20
4.762089991208836
 30
0.0
 10
108.622575219716
 20
5.093803553030894
 30
0.0
 10
108.3605448057226
 20
5.729533020088487
 30
0.0
 10
108.2241355770053
 20
6.033219922332886
 30
0.0
 10
107.7983166768912
 20
6.903913870249169
 30
0.0
 10
107.4923573850899
 20
7.430886565248522
 30
0.0
 10
107.162798706869
 20
7.905608369075926
 30
0.0
  0
SPLINE
  5
209
330
1CB
100
AcDbEntity
  8
0
  6
Continuous
 62
     7
370
    25
100
AcDbSpline
210
0.0
220
0.0
230
1.0
 70
     8
 71
     3
 72
    30
 73
    26
 74
     0
 42
0.000000001
 43
0.00000001
 40
0.0
 40
0.0
 40
0.0
 40
0.0
 40
0.1250000000000002
 40
0.1250000000000002
 40
0.2500000000000003
 40
0.2500000000000003
 40
0.3750000000000005
 40
0.3750000000000005
 40
0.4375000000000004
 40
0.4375000000000004
 40
0.5000000000000004
 40
0.5000000000000004
 40
0.5625000000000004
 40
0.5625000000000004
 40
0.6250000000000003
 40
0.6250000000000003
 40
0.7500000000000003
 40
0.7500000000000003
 40
0.8125000000000003
 40
0.8125000000000003
 40
0.8750000000000002
 40
0.8750000000000002
 40
0.9375000000000002
 40
0.9375000000000002
 40
1.0
 40
1.0
 40
1.0
 40
1.0
 10
102.1440207740152
 20
10.25617988335495
 30
0.0
 10
102.477183808936
 20
9.962878685238577
 30
0.0
 10
102.7972368885414
 20
9.635301040308665
 30
0.0
 10
103.4121057202237
 20
8.909051274805885
 30
0.0
 10
103.7081374686766
 20
8.508622994414281
 30
0.0
 10
104.2695611088053
 20
7.632913429402588
 30
0.0
 10
104.5272132765742
 20
7.170183493589546
 30
0.0
 10
104.8803310870925
 20
6.436788070058342
 30
0.0
 10
104.9931734446441
 20
6.183895056802942
 30
0.0
 10
105.2035531331091
 20
5.673167706485343
 30
0.0
 10
105.3007008023045
 20
5.416625319450226
 30
0.0
 10
105.4795923791985
 20
4.901500626139087
 30
0.0
 10
105.5613395756672
 20
4.642918190011206
 30
0.0
 10
105.7094069799304
 20
4.123935901936358
 30
0.0
 10
105.7762212280052
 20
3.861131118604299
 30
0.0
 10
105.9475821530047
 20
3.092050088867227
 30
0.0
 10
106.0245754437751
 20
2.60433350648662
 30
0.0
 10
106.0845628070585
 20
1.913537563829284
 30
0.0
 10
106.0948041253456
 20
1.692404788546258
 30
0.0
 10
106.0957907160558
 20
1.279430397610911
 30
0.0
 10
106.086707339697
 20
1.085784633563925
 30
0.0
 10
106.0491462656307
 20
0.7242609521471016
 30
0.0
 10
106.0203590330764
 20
0.5557138409849338
 30
0.0
 10
105.944213325858
 20
0.2535408708311693
 30
0.0
 10
105.896848914855
 20
0.1187621484949868
 30
0.0
 10
105.8399543518193
 20
0.0000000000000069
 30
0.0
  0
SPLINE
  5
20A
330
1CB
100
AcDbEntity
  8
0
  6
Continuous
 62
     7
370
    25
100
AcDbSpline
210
0.0
220
0.0
230
1.0
 70
     8
 71
     3
 72
    30
 73
    26
 74
     0
 42
0.000000001
 43
0.00000001
 40
0.0
 40
0.0
 40
0.0
 40
0.0
 40
0.1249999999999989
 40
0.1249999999999989
 40
0.1874999999999982
 40
0.1874999999999982
 40
0.2499999999999976
 40
0.2499999999999976
 40
0.3749999999999978
 40
0.3749999999999978
 40
0.4374999999999979
 40
0.4374999999999979
 40
0.499999999999998
 40
0.499999999999998
 40
0.5624999999999981
 40
0.5624999999999981
 40
0.6249999999999982
 40
0.6249999999999982
 40
0.7499999999999989
 40
0.7499999999999989
 40
0.8749999999999996
 40
0.8749999999999996
 40
0.9374999999999998
 40
0.9374999999999998
 40
1.0
 40
1.0
 40
1.0
 40
1.0
 10
-101.9842306780592
 20
10.02669213764656
 30
0.0
 10
-102.3216573258531
 20
9.739202105231866
 30
0.0
 10
-102.6458437112345
 20
9.417170211871163
 30
0.0
 10
-103.1129182008663
 20
8.880080673460126
 30
0.0
 10
-103.2653991466601
 20
8.691984010114638
 30
0.0
 10
-103.5639241816585
 20
8.296421863336336
 30
0.0
 10
-103.7107182212219
 20
8.087799175814014
 30
0.0
 10
-104.1358165617271
 20
7.438283986866783
 30
0.0
 10
-104.3956531353238
 20
6.979790085963603
 30
0.0
 10
-104.7509629709554
 20
6.251346477676928
 30
0.0
 10
-104.8643978387584
 20
5.999685981675499
 30
0.0
 10
-105.0740664715417
 20
5.494454151865138
 30
0.0
 10
-105.1706316128029
 20
5.240549867374508
 30
0.0
 10
-105.3478014789547
 20
4.730485730166319
 30
0.0
 10
-105.428411234788
 20
4.474325961260175
 30
0.0
 10
-105.5734672501277
 20
3.959961805021678
 30
0.0
 10
-105.6381146540541
 20
3.700222314543399
 30
0.0
 10
-105.8006858986608
 20
2.946390559484353
 30
0.0
 10
-105.8708346635265
 20
2.467320892013352
 30
0.0
 10
-105.9318469984764
 20
1.571488516371995
 30
0.0
 10
-105.921526620224
 20
1.176557101002281
 30
0.0
 10
-105.8452106787439
 20
0.6622997735325677
 30
0.0
 10
-105.8095211222173
 20
0.5058535045067494
 30
0.0
 10
-105.7193165202992
 20
0.2282518781453243
 30
0.0
 10
-105.6646463112754
 20
0.1059719232131308
 30
0.0
 10
-105.6000585511047
 20
0.0
 30
0.0
  0
SPLINE
  5
20B
330
1CB
100
AcDbEntity
  8
0
  6
Continuous
 62
     7
370
    25
100
AcDbSpline
210
0.0
220
0.0
230
1.0
 70
    24
 71
     3
 72
    12
 73
     8
 74
     0
 42
0.000000001
 43
0.00000001
 40
0.0
 40
0.0
 40
0.0
 40
0.0
 40
0.25
 40
0.25
 40
0.5
 40
0.5
 40
1.0
 40
1.0
 40
1.0
 40
1.0
 10
-105.6000585511047
 20
0.0
 30
0.0
 10
-105.6322268897588
 20
0.0
 30
0.0
 10
-105.6610277991601
 20
0.0
 30
0.0
 10
-105.7102045180941
 20
0.0
 30
0.0
 10
-105.730837919334
 20
0.0
 30
0.0
 10
-105.7872583149285
 20
0.0
 30
0.0
 10
-105.8162318472239
 20
0.0
 30
0.0
 10
-105.8399543518194
 20
0.0
 30
0.0
  0
SPLINE
  5
20C
330
1CB
100
AcDbEntity
  8
0
  6
Continuous
 62
     7
370
    25
100
AcDbSpline
210
0.0
220
0.0
230
1.0
 70
     8
 71
     3
 72
    30
 73
    26
 74
     0
 42
0.000000001
 43
0.00000001
 40
0.0
 40
0.0
 40
0.0
 40
0.0
 40
0.0624999999999993
 40
0.0624999999999993
 40
0.1249999999999987
 40
0.1249999999999987
 40
0.2499999999999973
 40
0.2499999999999973
 40
0.3749999999999959
 40
0.3749999999999959
 40
0.4374999999999956
 40
0.4374999999999956
 40
0.4999999999999952
 40
0.4999999999999952
 40
0.5624999999999949
 40
0.5624999999999949
 40
0.6249999999999946
 40
0.6249999999999946
 40
0.7499999999999952
 40
0.7499999999999952
 40
0.8124999999999964
 40
0.8124999999999964
 40
0.8749999999999977
 40
0.8749999999999977
 40
1.0
 40
1.0
 40
1.0
 40
1.0
 10
105.6000585511046
 20
-0.0000000000001023
 30
0.0
 10
105.6646463112753
 20
0.1059719232130163
 30
0.0
 10
105.7193165202992
 20
0.2282518781453174
 30
0.0
 10
105.8095211222173
 20
0.5058535045067356
 30
0.0
 10
105.8452106787439
 20
0.6622997735325366
 30
0.0
 10
105.921526620224
 20
1.176557101002276
 30
0.0
 10
105.9318469984765
 20
1.571488516371993
 30
0.0
 10
105.8708346635264
 20
2.46732089201329
 30
0.0
 10
105.8006858986608
 20
2.946390559484365
 30
0.0
 10
105.6381146540541
 20
3.700222314543379
 30
0.0
 10
105.5734672501277
 20
3.959961805021653
 30
0.0
 10
105.4284112347879
 20
4.474325961260182
 30
0.0
 10
105.3478014789547
 20
4.730485730166335
 30
0.0
 10
105.1706316128029
 20
5.240549867374524
 30
0.0
 10
105.0740664715417
 20
5.494454151865141
 30
0.0
 10
104.8643978387584
 20
5.999685981675466
 30
0.0
 10
104.7509629709553
 20
6.251346477676906
 30
0.0
 10
104.3956531353237
 20
6.979790085963613
 30
0.0
 10
104.1358165617271
 20
7.438283986866793
 30
0.0
 10
103.7107182212219
 20
8.08779917581398
 30
0.0
 10
103.5639241816584
 20
8.29642186333634
 30
0.0
 10
103.26539914666
 20
8.691984010114655
 30
0.0
 10
103.1129182008663
 20
8.880080673460148
 30
0.0
 10
102.6458437112345
 20
9.417170211871193
 30
0.0
 10
102.3216573258508
 20
9.739202105233993
 30
0.0
 10
101.9842306780569
 20
10.02669213764851
 30
0.0
  0
SPLINE
  5
20F
330
1CB
100
AcDbEntity
  8
0
  6
Continuous
 62
     7
370
    25
100
AcDbSpline
210
0.0
220
0.0
230
1.0
 70
     8
 71
     3
 72
    20
 73
    16
 74
     0
 42
0.000000001
 43
0.00000001
 40
0.0
 40
0.0
 40
0.0
 40
0.0
 40
0.1250000000000014
 40
0.1250000000000014
 40
0.2500000000000028
 40
0.2500000000000028
 40
0.3750000000000042
 40
0.3750000000000042
 40
0.5000000000000057
 40
0.5000000000000057
 40
0.6250000000000071
 40
0.6250000000000071
 40
0.7500000000000084
 40
0.7500000000000084
 40
1.0
 40
1.0
 40
1.0
 40
1.0
 10
-80.7607751582056
 20
4.999999999999999
 30
0.0
 10
-80.73500025971383
 20
4.906005661528429
 30
0.0
 10
-80.7019072279234
 20
4.815389524810226
 30
0.0
 10
-80.61743306179864
 20
4.642346302240948
 30
0.0
 10
-80.56538486198146
 20
4.559162693775166
 30
0.0
 10
-80.44037176608494
 20
4.412812767164333
 30
0.0
 10
-80.3656730189732
 20
4.347926750648797
 30
0.0
 10
-80.1954660914941
 20
4.255408033098705
 30
0.0
 10
-80.09815148625083
 20
4.228008579136609
 30
0.0
 10
-79.90220288073456
 20
4.227945708619276
 30
0.0
 10
-79.80557792365823
 20
4.254961776107199
 30
0.0
 10
-79.63455950319084
 20
4.347680026927305
 30
0.0
 10
-79.56050189487488
 20
4.411889783605927
 30
0.0
 10
-79.37161386311833
 20
4.632718229974157
 30
0.0
 10
-79.29079214679375
 20
4.811947475885139
 30
0.0
 10
-79.2392248417944
 20
4.999999999999996
 30
0.0
  0
SPLINE
  5
211
330
1CB
100
AcDbEntity
  8
0
  6
Continuous
 62
     7
370
    25
100
AcDbSpline
210
0.0
220
0.0
230
1.0
 70
     8
 71
     3
 72
    20
 73
    16
 74
     0
 42
0.000000001
 43
0.00000001
 40
0.0
 40
0.0
 40
0.0
 40
0.0
 40
0.1249999999999986
 40
0.1249999999999986
 40
0.2499999999999971
 40
0.2499999999999971
 40
0.3749999999999957
 40
0.3749999999999957
 40
0.4999999999999942
 40
0.4999999999999942
 40
0.6249999999999928
 40
0.6249999999999928
 40
0.7499999999999913
 40
0.7499999999999913
 40
1.0
 40
1.0
 40
1.0
 40
1.0
 10
79.23922484179433
 20
4.999999999999999
 30
0.0
 10
79.26499974028609
 20
4.906005661528422
 30
0.0
 10
79.29809277207652
 20
4.815389524810211
 30
0.0
 10
79.38256693820134
 20
4.642346302240913
 30
0.0
 10
79.43461513801847
 20
4.559162693775111
 30
0.0
 10
79.55962823391505
 20
4.412812767164258
 30
0.0
 10
79.63432698102677
 20
4.347926750648718
 30
0.0
 10
79.80453390850589
 20
4.255408033098615
 30
0.0
 10
79.90184851374916
 20
4.228008579136522
 30
0.0
 10
80.09779711926548
 20
4.22794570861919
 30
0.0
 10
80.19442207634178
 20
4.254961776107111
 30
0.0
 10
80.36544049680923
 20
4.347680026927227
 30
0.0
 10
80.43949810512518
 20
4.411889783605865
 30
0.0
 10
80.6283861368817
 20
4.632718229974122
 30
0.0
 10
80.70920785320634
 20
4.811947475885125
 30
0.0
 10
80.76077515820567
 20
5.000000000000003
 30
0.0
  0
SPLINE
  5
212
330
1CB
100
AcDbEntity
  8
0
  6
Continuous
 62
     7
370
    25
100
AcDbSpline
210
0.0
220
0.0
230
1.0
 70
    24
 71
     3
 72
    12
 73
     8
 74
     0
 42
0.000000001
 43
0.00000001
 40
0.0
 40
0.0
 40
0.0
 40
0.0
 40
0.4999999999999674
 40
0.4999999999999674
 40
0.7499999999999837
 40
0.7499999999999837
 40
1.0
 40
1.0
 40
1.0
 40
1.0
 10
105.8399543518193
 20
0.0000000000000069
 30
0.0
 10
105.8162229323418
 20
0.0000000000000069
 30
0.0
 10
105.787436626174
 20
0.0
 30
0.0
 10
105.7310110294775
 20
0.0
 30
0.0
 10
105.709924247506
 20
0.0
 30
0.0
 10
105.6609903853244
 20
0.0
 30
0.0
 10
105.6322919134979
 20
0.0
 30
0.0
 10
105.6000585511033
 20
0.0
 30
0.0
  0
LWPOLYLINE
  5
219
330
1CB
100
AcDbEntity
  8
0
  6
Continuous
 62
     8
370
    25
100
AcDbPolyline
 90
        3
 70
   128
 43
0.0
 10
-99.673053188
 20
11.9003021458
 10
-100.5193543284
 20
11.2492817471
 10
-101.9842306781
 20
10.0266921376
  0
LINE
  5
21A
330
1CB
100
AcDbEntity
  8
0
  6
Continuous
 62
     7
370
    25
100
AcDbLine
 10
71.4689803669
 20
26.1826274553
 30
0.0
 11
-71.4689803669
 21
26.1826274553
 31
0.0
  0
LINE
  5
21B
330
1CB
100
AcDbEntity
  8
0
  6
Continuous
 62
     7
370
    25
100
AcDbLine
 10
-88.0
 20
18.4598678778
 30
0.0
 11
-88.0
 21
21.6801817399
 31
0.0
  0
LINE
  5
21C
330
1CB
100
AcDbEntity
  8
0
  6
Continuous
 62
     7
370
    25
100
AcDbLine
 10
-70.2039463869
 20
24.0960516586
 30
0.0
 11
-70.2039463869
 21
25.9067980995
 31
0.0
  0
LINE
  5
21D
330
1CB
100
AcDbEntity
  8
0
  6
Continuous
 62
     7
370
    25
100
AcDbLine
 10
88.0
 20
18.4598678778
 30
0.0
 11
88.0
 21
21.6801817399
 31
0.0
  0
LINE
  5
21E
330
1CB
100
AcDbEntity
  8
0
  6
Continuous
 62
     7
370
    25
100
AcDbLine
 10
70.2039463869
 20
25.9067980995
 30
0.0
 11
70.2039463869
 21
24.0960516586
 31
0.0
  0
LINE
  5
21F
330
1CB
100
AcDbEntity
  8
0
  6
Continuous
 62
     7
370
    25
100
AcDbLine
 10
-69.7898068455
 20
24.4034873585
 30
0.0
 11
69.7898068455
 21
24.4034873585
 31
0.0
  0
LINE
  5
220
330
1CB
100
AcDbEntity
  8
0
  6
Continuous
 62
     7
370
    25
100
AcDbLine
 10
74.1197262661
 20
22.2861148137
 30
0.0
 11
-74.1197262661
 21
22.2861148137
 31
0.0
  0
LINE
  5
221
330
1CB
100
AcDbEntity
  8
0
  6
Continuous
 62
     7
370
    25
100
AcDbLine
 10
69.7898068455
 20
24.4034873585
 30
0.0
 11
69.7898068455
 21
25.6766346993
 31
0.0
  0
LINE
  5
222
330
1CB
100
AcDbEntity
  8
0
  6
Continuous
 62
     7
370
    25
100
AcDbLine
 10
-69.7898068455
 20
25.6766346993
 30
0.0
 11
-69.7898068455
 21
24.4034873585
 31
0.0
  0
LINE
  5
223
330
1CB
100
AcDbEntity
  8
0
  6
Continuous
 62
     7
370
    25
100
AcDbLine
 10
69.7898068455
 20
25.6766346993
 30
0.0
 11
-69.7898068455
 21
25.6766346993
 31
0.0
  0
LINE
  5
224
330
1CB
100
AcDbEntity
  8
0
  6
Continuous
 62
     7
370
    25
100
AcDbLine
 10
-101.9842306781
 20
10.0266921376
 30
0.0
 11
101.9842306781
 21
10.0266921376
 31
0.0
  0
LINE
  5
225
330
1CB
100
AcDbEntity
  8
0
  6
Continuous
 62
     7
370
    25
100
AcDbLine
 10
-109.9554847021
 20
0.0
 30
0.0
 11
-105.8399543518
 21
0.0
 31
0.0
  0
LINE
  5
226
330
1CB
100
AcDbEntity
  8
0
  6
Continuous
 62
     7
370
    25
100
AcDbLine
 10
105.8399543518
 20
0.0
 30
0.0
 11
109.9554847021
 21
0.0
 31
0.0
  0
LINE
  5
227
330
1CB
100
AcDbEntity
  8
0
  6
Continuous
 62
     7
370
    25
100
AcDbLine
 10
-105.6000585511
 20
0.0
 30
0.0
 11
105.6000585511
 21
0.0
 31
0.0
  0
LINE
  5
228
330
1CB
100
AcDbEntity
  8
0
  6
Continuous
 62
     7
370
    25
100
AcDbLine
 10
-80.7607751582
 20
5.0
 30
0.0
 11
-79.2392248418
 21
5.0
 31
0.0
  0
LINE
  5
229
330
1CB
100
AcDbEntity
  8
0
  6
Continuous
 62
     7
370
    25
100
AcDbLine
 10
79.2392248418
 20
5.0
 30
0.0
 11
80.7607751582
 21
5.0
 31
0.0
  0
LINE
  5
22A
330
1CB
100
AcDbEntity
  8
0
  6
Continuous
 62
     8
370
    25
100
AcDbLine
 10
-75.4529606659
 20
22.2657920922
 30
0.0
 11
-74.1845265413
 21
22.5612818036
 31
0.0
  0
LINE
  5
22B
330
1CB
100
AcDbEntity
  8
0
  6
Continuous
 62
     8
370
    25
100
AcDbLine
 10
-74.1845265413
 20
25.7815956657
 30
0.0
 11
-74.656312299
 21
25.6734739866
 31
0.0
  0
LINE
  5
22C
330
1CB
100
AcDbEntity
  8
0
  6
Continuous
 62
     8
370
    25
100
AcDbLine
 10
75.7512743431
 20
25.4143826712
 30
0.0
 11
74.1845265413
 21
25.7815956657
 31
0.0
  0
LINE
  5
22D
330
1CB
100
AcDbEntity
  8
0
  6
Continuous
 62
     8
370
    25
100
AcDbLine
 10
74.1845265413
 20
22.5612818036
 30
0.0
 11
74.8140464661
 21
22.4165414199
 31
0.0
  0
LINE
  5
22E
330
1CB
100
AcDbEntity
  8
0
  6
Continuous
 62
     8
370
    25
100
AcDbLine
 10
-87.037382494
 20
18.5123724505
 30
0.0
 11
-87.9019444462
 21
18.194573417
 31
0.0
  0
LINE
  5
22F
330
1CB
100
AcDbEntity
  8
0
  6
Continuous
 62
     8
370
    25
100
AcDbLine
 10
101.9842306781
 20
10.0266921376
 30
0.0
 11
101.2774910828
 21
10.6327401983
 31
0.0
  0
ARC
  5
230
330
1CB
100
AcDbEntity
  8
0
  6
Continuous
 62
     7
370
    25
100
AcDbCircle
 10
-50.535802592
 20
-82.4638786999
 30
0.0
 40
107.6530014012816
100
AcDbArc
 50
103.3829307979
 51
110.3655758615
  0
ARC
  5
231
330
1CB
100
AcDbEntity
  8
0
  6
Continuous
 62
     7
370
    25
100
AcDbCircle
 10
-50.4586676426
 20
-79.4743538377
 30
0.0
 40
107.8962080107231
100
AcDbArc
 50
102.9598256201
 51
110.3613259079
  0
ARC
  5
232
330
1CB
100
AcDbEntity
  8
0
  6
Continuous
 62
     7
370
    25
100
AcDbCircle
 10
-70.4390079815
 20
23.7246372623
 30
0.0
 40
0.4395481850780543
100
AcDbArc
 50
48.6691661688
 51
57.6710047248
  0
ARC
  5
233
330
1CB
100
AcDbEntity
  8
0
  6
Continuous
 62
     7
370
    25
100
AcDbCircle
 10
-73.4945485198
 20
22.5785541939
 30
0.0
 40
0.6901941796527122
100
AcDbArc
 50
181.433999913
 51
205.0687816849
  0
ARC
  5
234
330
1CB
100
AcDbEntity
  8
0
  6
Continuous
 62
     7
370
    25
100
AcDbCircle
 10
70.4390079815
 20
23.7246372623
 30
0.0
 40
0.4395481850788007
100
AcDbArc
 50
122.3289952752
 51
131.3308338312
  0
ARC
  5
235
330
1CB
100
AcDbEntity
  8
0
  6
Continuous
 62
     7
370
    25
100
AcDbCircle
 10
73.4945485198
 20
22.5785541939
 30
0.0
 40
0.6901941796527203
100
AcDbArc
 50
334.9312183151
 51
358.566000087
  0
ARC
  5
236
330
1CB
100
AcDbEntity
  8
0
  6
Continuous
 62
     7
370
    25
100
AcDbCircle
 10
50.5649519586
 20
-79.1563484667
 30
0.0
 40
107.5610926216123
100
AcDbArc
 50
69.6328128879
 51
76.4579874708
  0
ARC
  5
237
330
1CB
100
AcDbEntity
  8
0
  6
Continuous
 62
     7
370
    25
100
AcDbCircle
 10
50.4738586316
 20
-82.6492163254
 30
0.0
 40
107.8483110410952
100
AcDbArc
 50
69.637838677
 51
76.9565972096
  0
ARC
  5
238
330
1CB
100
AcDbEntity
  8
0
  6
Continuous
 62
     7
370
    25
100
AcDbCircle
 10
-66.8699643317
 20
21.0397626637
 30
0.0
 40
4.454225424017368
100
AcDbArc
 50
130.9592384522
 51
137.4004007872
  0
ARC
  5
239
330
1CB
100
AcDbEntity
  8
0
  6
Continuous
 62
     7
370
    25
100
AcDbCircle
 10
66.8699643317
 20
21.0397626637
 30
0.0
 40
4.454225424014191
100
AcDbArc
 50
42.5995992128
 51
49.0407615478
  0
ARC
  5
23A
330
1CB
100
AcDbEntity
  8
0
  6
Continuous
 62
     7
370
    25
100
AcDbCircle
 10
-67.4823054066
 20
20.8624486215
 30
0.0
 40
4.226525550282601
100
AcDbArc
 50
123.090089655
 51
130.0864614673
  0
ARC
  5
23B
330
1CB
100
AcDbEntity
  8
0
  6
Continuous
 62
     7
370
    25
100
AcDbCircle
 10
67.4823054066
 20
20.8624486215
 30
0.0
 40
4.226525550281861
100
AcDbArc
 50
49.9135385327
 51
56.909910345
  0
ARC
  5
23C
330
1CB
100
AcDbEntity
  8
0
  6
Continuous
 62
     7
370
    25
100
AcDbCircle
 10
71.5838853339
 20
22.9361665515
 30
0.0
 40
3.275497411308499
100
AcDbArc
 50
114.9161469433
 51
123.2112174525
  0
ARC
  5
23D
330
1CB
100
AcDbEntity
  8
0
  6
Continuous
 62
     7
370
    25
100
AcDbCircle
 10
-71.5838853339
 20
22.9361665515
 30
0.0
 40
3.275497411308671
100
AcDbArc
 50
56.7887825475
 51
65.0838530567
  0
ARC
  5
23E
330
1CB
100
AcDbEntity
  8
0
  6
Continuous
 62
     7
370
    25
100
AcDbCircle
 10
87.5362132679
 20
18.4805198114
 30
0.0
 40
0.4642463088166146
100
AcDbArc
 50
321.9799772384
 51
357.4503636909
  0
ARC
  5
23F
330
1CB
100
AcDbEntity
  8
0
  6
Continuous
 62
     7
370
    25
100
AcDbCircle
 10
50.4058891172
 20
-82.8513774523
 30
0.0
 40
107.7786544373127
100
AcDbArc
 50
69.6411551493
 51
77.2895865303
  0
ARC
  5
240
330
1CB
100
AcDbEntity
  8
0
  6
Continuous
 62
     7
370
    25
100
AcDbCircle
 10
-87.5362132679
 20
18.4805198114
 30
0.0
 40
0.4642463088166289
100
AcDbArc
 50
182.5496363091
 51
218.0200227616
  0
ARC
  5
241
330
1CB
100
AcDbEntity
  8
0
  6
Continuous
 62
     7
370
    25
100
AcDbCircle
 10
-50.3273470064
 20
-83.1517303672
 30
0.0
 40
108.0889286986736
100
AcDbArc
 50
102.7159966444
 51
109.8542164135
  0
ARC
  5
242
330
1CB
100
AcDbEntity
  8
0
  6
Continuous
 62
     7
370
    25
100
AcDbCircle
 10
72.4828115634
 20
-24.6895535295
 30
0.0
 40
45.57189926721248
100
AcDbArc
 50
50.8131339485
 51
70.2237803038
  0
ARC
  5
243
330
1CB
100
AcDbEntity
  8
0
  6
Continuous
 62
     7
370
    25
100
AcDbCircle
 10
-72.0804677831
 20
-25.5475432346
 30
0.0
 40
46.51550164151608
100
AcDbArc
 50
109.885002952
 51
126.3837927107
  0
ARC
  5
244
330
1CB
100
AcDbEntity
  8
0
  6
Continuous
 62
     7
370
    25
100
AcDbCircle
 10
-70.0427984434
 20
25.7491643699
 30
0.0
 40
0.2254263791710996
100
AcDbArc
 50
118.0282323608
 51
135.6315967452
  0
ARC
  5
245
330
1CB
100
AcDbEntity
  8
0
  6
Continuous
 62
     7
370
    25
100
AcDbCircle
 10
71.9177739424
 20
23.2366452997
 30
0.0
 40
3.237559611109508
100
AcDbArc
 50
123.1213078119
 51
131.0923808715
  0
ARC
  5
246
330
1CB
100
AcDbEntity
  8
0
  6
Continuous
 62
     7
370
    25
100
AcDbCircle
 10
-71.9177739424
 20
23.2366452997
 30
0.0
 40
3.237559611109785
100
AcDbArc
 50
48.9076191285
 51
56.8786921881
  0
ARC
  5
247
330
1CB
100
AcDbEntity
  8
0
  6
Continuous
 62
     7
370
    25
100
AcDbCircle
 10
70.0427984434
 20
25.7491643699
 30
0.0
 40
0.225426379170941
100
AcDbArc
 50
44.3684032548
 51
61.9717676392
  0
ARC
  5
248
330
1CB
100
AcDbEntity
  8
0
  6
Continuous
 62
     7
370
    25
100
AcDbCircle
 10
50.2262290801
 20
-80.0185283725
 30
0.0
 40
108.4883794691832
100
AcDbArc
 50
70.8007845654
 51
77.2768613359
  0
ARC
  5
249
330
1CB
100
AcDbEntity
  8
0
  6
Continuous
 62
     7
370
    25
100
AcDbCircle
 10
-49.6412067762
 20
-82.2462320008
 30
0.0
 40
110.7902576552573
100
AcDbArc
 50
102.7645254212
 51
106.8434347001
  0
ARC
  5
24A
330
1CB
100
AcDbEntity
  8
0
  6
Continuous
 62
     7
370
    25
100
AcDbCircle
 10
-72.7008023664
 20
-24.2122912261
 30
0.0
 40
45.33187190954876
100
AcDbArc
 50
109.7242184823
 51
130.5041932164
  0
ARC
  5
24B
330
1CB
100
AcDbEntity
  8
0
  6
Continuous
 62
     7
370
    25
100
AcDbCircle
 10
-101.8570766186
 20
10.2856022998
 30
0.0
 40
0.2884486555688472
100
AcDbArc
 50
185.8544815461
 51
243.8437606933
  0
ARC
  5
24C
330
1CB
100
AcDbEntity
  8
0
  6
Continuous
 62
     7
370
    25
100
AcDbCircle
 10
72.7008023664
 20
-24.2122912261
 30
0.0
 40
45.33187190955042
100
AcDbArc
 50
49.4958067836
 51
70.2757815177
  0
ARC
  5
24D
330
1CB
100
AcDbEntity
  8
0
  6
Continuous
 62
     7
370
    25
100
AcDbCircle
 10
101.8570766186
 20
10.2856022998
 30
0.0
 40
0.2884486555644957
100
AcDbArc
 50
296.1562393068
 51
354.145518455
  0
ARC
  5
24E
330
1CB
100
AcDbEntity
  8
0
  6
Continuous
 62
     7
370
    25
100
AcDbCircle
 10
-75.2791629664
 20
-16.2333483793
 30
0.0
 40
39.99069217873247
100
AcDbArc
 50
108.5477542949
 51
142.8708007122
  0
ARC
  5
24F
330
1CB
100
AcDbEntity
  8
0
  6
Continuous
 62
     7
370
    25
100
AcDbCircle
 10
75.2791629664
 20
-16.2333483793
 30
0.0
 40
39.99069217873269
100
AcDbArc
 50
37.1291992878
 51
71.4522457051
  0
VIEWPORT
  5
387
330
1CB
100
AcDbEntity
  8
0
100
AcDbViewport
 10
0.0
 20
0.0
 30
0.0
 40
205.6
 41
156.0
 68
     1
 69
     1
 12
-13.0911322451
 22
0.9264697138
 13
0.0
 23
0.0
 14
10.0
 24
10.0
 15
10.0
 25
10.0
 16
0.0
 26
0.0
 36
1.0
 17
0.0
 27
0.0
 37
0.0
 42
50.0
 43
0.0
 44
0.0
 45
27.8940017838
 50
0.0
 51
0.0
 72
   100
 90
   557152
  1

281
     0
 71
     1
 74
     0
110
0.0
120
0.0
130
0.0
111
1.0
121
0.0
131
0.0
112
0.0
122
1.0
132
0.0
 79
     0
146
0.0
  0
ENDBLK
  5
1CE
330
1CB
100
AcDbEntity
  8
0
100
AcDbBlockEnd
  0
BLOCK
  5
252
330
250
100
AcDbEntity
  8
0
100
AcDbBlockBegin
  2
*Paper_Space4
 70
     0
 10
0.0
 20
0.0
 30
0.0
  3
*Paper_Space4
  1

  0
SPLINE
  5
256
330
250
100
AcDbEntity
  8
0
  6
Continuous
 62
     7
370
    25
100
AcDbSpline
210
0.0
220
0.0
230
1.0
 70
     8
 71
     3
 72
     9
 73
     5
 74
     0
 42
0.000000001
 43
0.00000001
 40
0.0
 40
0.0
 40
0.0
 40
0.0
 40
0.7027569904133295
 40
1.0
 40
1.0
 40
1.0
 40
1.0
 10
-77.71735163667009
 20
56.72041724137896
 30
0.0
 10
-77.9208417992711
 20
56.55657449486991
 30
0.0
 10
-78.21040158363034
 20
56.32343167488502
 30
0.0
 10
-78.472222993949
 20
56.0202817348861
 30
0.0
 10
-78.55004757792634
 20
55.93017253436479
 30
0.0
  0
SPLINE
  5
259
330
250
100
AcDbEntity
  8
0
  6
Continuous
 62
     7
370
    25
100
AcDbSpline
210
0.0
220
0.0
230
1.0
 70
     8
 71
     3
 72
    18
 73
    14
 74
     0
 42
0.000000001
 43
0.00000001
 40
0.0
 40
0.0
 40
0.0
 40
0.0
 40
0.1249999999999999
 40
0.1249999999999999
 40
0.2499999999999999
 40
0.2499999999999999
 40
0.5000000000000007
 40
0.5000000000000007
 40
0.6250000000000006
 40
0.6250000000000006
 40
0.7500000000000006
 40
0.7500000000000006
 40
1.0
 40
1.0
 40
1.0
 40
1.0
 10
77.75026886153685
 20
-33.15614035254985
 30
0.0
 10
77.42870914120448
 20
-33.28819338200237
 30
0.0
 10
77.1048953383151
 20
-33.43429598795375
 30
0.0
 10
76.45185552256761
 20
-33.75293801216641
 30
0.0
 10
76.12199687579852
 20
-33.9259481947018
 30
0.0
 10
75.1419907076209
 20
-34.47204834631938
 30
0.0
 10
74.49506672433603
 20
-34.87472378946352
 30
0.0
 10
73.52906520622723
 20
-35.52773230903743
 30
0.0
 10
73.20589649342658
 20
-35.75507904642009
 30
0.0
 10
72.57108439365824
 20
-36.21782039804777
 30
0.0
 10
72.25988943508126
 20
-36.45275381385834
 30
0.0
 10
71.3431164083435
 20
-37.16654346767832
 30
0.0
 10
70.75414455220958
 20
-37.65422615529893
 30
0.0
 10
70.18543236937724
 20
-38.15155739386356
 30
0.0
  0
SPLINE
  5
25B
330
250
100
AcDbEntity
  8
0
  6
Continuous
 62
     7
370
    25
100
AcDbSpline
210
0.0
220
0.0
230
1.0
 70
     8
 71
     3
 72
    15
 73
    11
 74
     0
 42
0.000000001
 43
0.00000001
 40
0.0
 40
0.0
 40
0.0
 40
0.0
 40
0.1637739084012749
 40
0.3273679089703967
 40
0.4498257352350668
 40
0.5721902857762681
 40
0.6952392466705168
 40
0.8181864417987279
 40
0.925804139471558
 40
1.0
 40
1.0
 40
1.0
 40
1.0
 10
64.9745154023763
 20
-44.52994142318708
 30
0.0
 10
65.41102222505104
 20
-44.28716934393735
 30
0.0
 10
66.28355636180885
 20
-43.80189187381895
 30
0.0
 10
67.59971083173672
 20
-43.17742817742752
 30
0.0
 10
68.82718255090991
 20
-42.67381359101594
 30
0.0
 10
69.94269871302531
 20
-42.29167865117727
 30
0.0
 10
71.03802639444335
 20
-42.00878378354719
 30
0.0
 10
72.02894743574436
 20
-41.85999994727917
 30
0.0
 10
72.81727329717357
 20
-41.83365592624367
 30
0.0
 10
73.20679570253176
 20
-41.90475413482372
 30
0.0
 10
73.36575497018255
 20
-41.93376843287616
 30
0.0
  0
SPLINE
  5
265
330
250
100
AcDbEntity
  8
0
  6
Continuous
 62
     7
370
    25
100
AcDbSpline
210
0.0
220
0.0
230
1.0
 70
     8
 71
     3
 72
    18
 73
    14
 74
     0
 42
0.000000001
 43
0.00000001
 40
0.0
 40
0.0
 40
0.0
 40
0.0
 40
0.2500000000000004
 40
0.2500000000000004
 40
0.3750000000000005
 40
0.3750000000000005
 40
0.5000000000000006
 40
0.5000000000000006
 40
0.7500000000000008
 40
0.7500000000000008
 40
0.8750000000000004
 40
0.8750000000000004
 40
1.0
 40
1.0
 40
1.0
 40
1.0
 10
69.9902092135175
 20
-37.95658541634211
 30
0.0
 10
70.56219661215684
 20
-37.44997019004877
 30
0.0
 10
71.15486745135067
 20
-36.95366283417883
 30
0.0
 10
72.07774227591358
 20
-36.22786759121718
 30
0.0
 10
72.39106395720137
 20
-35.98908818113068
 30
0.0
 10
73.03030467794312
 20
-35.51896185448327
 30
0.0
 10
73.35585652660389
 20
-35.28802531884494
 30
0.0
 10
74.32897087164164
 20
-34.62501443774948
 30
0.0
 10
74.98071337437263
 20
-34.21654621155028
 30
0.0
 10
75.96798919146592
 20
-33.66272931931728
 30
0.0
 10
76.3003078451646
 20
-33.48728333369215
 30
0.0
 10
76.95862062414142
 20
-33.16390476654783
 30
0.0
 10
77.28508792537292
 20
-33.01558045470144
 30
0.0
 10
77.6093168212073
 20
-32.88140909070498
 30
0.0
  0
SPLINE
  5
266
330
250
100
AcDbEntity
  8
0
  6
Continuous
 62
     7
370
    25
100
AcDbSpline
210
0.0
220
0.0
230
1.0
 70
     8
 71
     3
 72
    10
 73
     6
 74
     0
 42
0.000000001
 43
0.00000001
 40
0.0
 40
0.0
 40
0.0
 40
0.0
 40
0.5
 40
0.5
 40
1.0
 40
1.0
 40
1.0
 40
1.0
 10
77.6093168212073
 20
-32.88140909070498
 30
0.0
 10
77.65134417337852
 20
-32.90567096468492
 30
0.0
 10
77.69240608887695
 20
-32.95135367790137
 30
0.0
 10
77.74604798868374
 20
-33.05525316054178
 30
0.0
 10
77.75809977680203
 20
-33.11295954961135
 30
0.0
 10
77.75026886153684
 20
-33.15614035254985
 30
0.0
  0
SPLINE
  5
267
330
250
100
AcDbEntity
  8
0
  6
Continuous
 62
     7
370
    25
100
AcDbSpline
210
0.0
220
0.0
230
1.0
 70
     8
 71
     3
 72
    18
 73
    14
 74
     0
 42
0.000000001
 43
0.00000001
 40
0.0
 40
0.0
 40
0.0
 40
0.0
 40
0.1249999999999993
 40
0.1249999999999993
 40
0.2499999999999987
 40
0.2499999999999987
 40
0.4999999999999982
 40
0.4999999999999982
 40
0.6249999999999986
 40
0.6249999999999986
 40
0.7499999999999989
 40
0.7499999999999989
 40
1.0
 40
1.0
 40
1.0
 40
1.0
 10
-77.6093168212073
 20
56.72440079776888
 30
0.0
 10
-77.84173362341456
 20
56.53722744030063
 30
0.0
 10
-78.06798240967228
 20
56.33104821123643
 30
0.0
 10
-78.50696884143818
 20
55.88105523891064
 30
0.0
 10
-78.71989611160754
 20
55.63668607464514
 30
0.0
 10
-79.32475392252849
 20
54.86210396656858
 30
0.0
 10
-79.68741018337674
 20
54.28674980519749
 30
0.0
 10
-80.16622314254857
 20
53.33838480797478
 30
0.0
 10
-80.31569719789732
 20
53.0058007258863
 30
0.0
 10
-80.58680784204826
 20
52.32315742957388
 30
0.0
 10
-80.70846075186311
 20
51.97372999292553
 30
0.0
 10
-81.0329084965847
 20
50.90247015019226
 30
0.0
 10
-81.19546053715085
 20
50.15786049713755
 30
0.0
 10
-81.3039177125023
 20
49.38365496875986
 30
0.0
  0
SPLINE
  5
269
330
250
100
AcDbEntity
  8
0
  6
Continuous
 62
     7
370
    25
100
AcDbSpline
210
0.0
220
0.0
230
1.0
 70
     8
 71
     3
 72
    13
 73
     9
 74
     0
 42
0.000000001
 43
0.00000001
 40
0.0
 40
0.0
 40
0.0
 40
0.0
 40
0.2431852766490085
 40
0.390772841417541
 40
0.5429170313309021
 40
0.7048028029164486
 40
0.8725382273319935
 40
1.0
 40
1.0
 40
1.0
 40
1.0
 10
74.67051749518241
 20
-43.10637220503749
 30
0.0
 10
74.58270080904747
 20
-42.88127806957433
 30
0.0
 10
74.44158874651765
 20
-42.51957576541585
 30
0.0
 10
73.95826167629512
 20
-42.17545859049147
 30
0.0
 10
73.43201788305394
 20
-41.97068476452785
 30
0.0
 10
72.75448848617926
 20
-41.87132246530042
 30
0.0
 10
72.02256429272616
 20
-41.87090842707752
 30
0.0
 10
71.49153013763389
 20
-41.95749705640863
 30
0.0
 10
71.2622374633672
 20
-41.994884742662
 30
0.0
  0
SPLINE
  5
26A
330
250
100
AcDbEntity
  8
0
  6
Continuous
 62
     7
370
    25
100
AcDbSpline
210
0.0
220
0.0
230
1.0
 70
     8
 71
     3
 72
    12
 73
     8
 74
     0
 42
0.000000001
 43
0.00000001
 40
0.0
 40
0.0
 40
0.0
 40
0.0
 40
0.4999999999999674
 40
0.4999999999999674
 40
0.7499999999999837
 40
0.7499999999999837
 40
1.0
 40
1.0
 40
1.0
 40
1.0
 10
74.84014944264597
 20
-42.98232283980206
 30
0.0
 10
74.8233687950062
 20
-43.02047990634493
 30
0.0
 10
74.80301380270967
 20
-43.05426738132459
 30
0.0
 10
74.76311488065305
 20
-43.09349824604706
 30
0.0
 10
74.7482042741276
 20
-43.10463947529111
 30
0.0
 10
74.71360280834938
 20
-43.11729414685342
 30
0.0
 10
74.69330992431115
 20
-43.11952999430301
 30
0.0
 10
74.67051749518146
 20
-43.10637220503435
 30
0.0
  0
SPLINE
  5
26C
330
250
100
AcDbEntity
  8
0
  6
Continuous
 62
     7
370
    25
100
AcDbSpline
210
0.0
220
0.0
230
1.0
 70
     8
 71
     3
 72
    16
 73
    12
 74
     0
 42
0.000000001
 43
0.00000001
 40
0.0
 40
0.0
 40
0.0
 40
0.0
 40
0.2500000000000022
 40
0.2500000000000022
 40
0.5000000000000044
 40
0.5000000000000044
 40
0.7500000000000067
 40
0.7500000000000067
 40
0.8750000000000033
 40
0.8750000000000033
 40
1.0
 40
1.0
 40
1.0
 40
1.0
 10
34.22604065144277
 20
-48.48277161212803
 30
0.0
 10
33.92829380102637
 20
-48.44634761986273
 30
0.0
 10
33.64070238224949
 20
-48.4114656050214
 30
0.0
 10
33.08512412510444
 20
-48.34463981898593
 30
0.0
 10
32.81703804138786
 20
-48.31265420175743
 30
0.0
 10
32.30472402369247
 20
-48.25347379704527
 30
0.0
 10
32.05898679268483
 20
-48.22591195837731
 30
0.0
 10
31.73037995451233
 20
-48.19477397463766
 30
0.0
 10
31.62719119486959
 20
-48.18604598489441
 30
0.0
 10
31.44491097505373
 20
-48.17603400265265
 30
0.0
 10
31.36272181438513
 20
-48.17393676356613
 30
0.0
 10
31.3228139412447
 20
-48.18412141996154
 30
0.0
  0
SPLINE
  5
26F
330
250
100
AcDbEntity
  8
0
  6
Continuous
 62
     7
370
    25
100
AcDbSpline
210
0.0
220
0.0
230
1.0
 70
     8
 71
     3
 72
    16
 73
    12
 74
     0
 42
0.000000001
 43
0.00000001
 40
0.0
 40
0.0
 40
0.0
 40
0.0
 40
0.1250000000000004
 40
0.1250000000000004
 40
0.2500000000000007
 40
0.2500000000000007
 40
0.5000000000000004
 40
0.5000000000000004
 40
0.7500000000000002
 40
0.7500000000000002
 40
1.0
 40
1.0
 40
1.0
 40
1.0
 10
32.60320502861548
 20
-48.75325755667985
 30
0.0
 10
32.77764391505962
 20
-48.80287217718979
 30
0.0
 10
32.95701663173318
 20
-48.84816768137147
 30
0.0
 10
33.30586913493006
 20
-48.93222134258384
 30
0.0
 10
33.47678515180757
 20
-48.97105421974262
 30
0.0
 10
33.98426979200384
 20
-49.08170370757875
 30
0.0
 10
34.31677676668988
 20
-49.14783485306891
 30
0.0
 10
34.964629259623
 20
-49.26726235332433
 30
0.0
 10
35.2808858824223
 20
-49.32065986164424
 30
0.0
 10
35.90130698693578
 20
-49.41630840973198
 30
0.0
 10
36.20539957044002
 20
-49.45852522191524
 30
0.0
 10
36.5031464208564
 20
-49.49494921418052
 30
0.0
  0
SPLINE
  5
272
330
250
100
AcDbEntity
  8
0
  6
Continuous
 62
     7
370
    25
100
AcDbSpline
210
0.0
220
0.0
230
1.0
 70
     8
 71
     3
 72
    16
 73
    12
 74
     0
 42
0.000000001
 43
0.00000001
 40
0.0
 40
0.0
 40
0.0
 40
0.0
 40
0.1249999999999999
 40
0.1249999999999999
 40
0.2499999999999998
 40
0.2499999999999998
 40
0.4999999999999999
 40
0.4999999999999999
 40
0.7499999999999999
 40
0.7499999999999999
 40
1.0
 40
1.0
 40
1.0
 40
1.0
 10
31.25452695474464
 20
-48.14858304594382
 30
0.0
 10
31.28481340802024
 20
-48.12981906787386
 30
0.0
 10
31.35861479664431
 20
-48.12198846719731
 30
0.0
 10
31.5299032278619
 20
-48.11333599820061
 30
0.0
 10
31.6295710549489
 20
-48.11298849778751
 30
0.0
 10
31.95137515704796
 20
-48.11736944072932
 30
0.0
 10
32.19790326400983
 20
-48.12764451492729
 30
0.0
 10
32.71595773077439
 20
-48.15310754796342
 30
0.0
 10
32.98912423208019
 20
-48.16861141066854
 30
0.0
 10
33.55841776234973
 20
-48.20290281324144
 30
0.0
 10
33.85466236964936
 20
-48.22173891302943
 30
0.0
 10
34.16296858944661
 20
-48.24235350181753
 30
0.0
  0
SPLINE
  5
274
330
250
100
AcDbEntity
  8
0
  6
Continuous
 62
     7
370
    25
100
AcDbSpline
210
0.0
220
0.0
230
1.0
 70
     8
 71
     3
 72
    16
 73
    12
 74
     0
 42
0.000000001
 43
0.00000001
 40
0.0
 40
0.0
 40
0.0
 40
0.0
 40
0.1250000000000001
 40
0.1250000000000001
 40
0.2500000000000001
 40
0.2500000000000001
 40
0.5000000000000001
 40
0.5000000000000001
 40
0.7500000000000001
 40
0.7500000000000001
 40
1.0
 40
1.0
 40
1.0
 40
1.0
 10
-67.95075525692172
 20
9.121407348829814
 30
0.0
 10
-68.09084871481339
 20
9.238529556002847
 30
0.0
 10
-68.22964871672315
 20
9.369092327006904
 30
0.0
 10
-68.49476205035832
 20
9.629674172385547
 30
0.0
 10
-68.62170714749996
 20
9.760842529355628
 30
0.0
 10
-68.9928190165103
 20
10.1564734620431
 30
0.0
 10
-69.22833689328347
 20
10.42447761091553
 30
0.0
 10
-69.67413171064169
 20
10.95543292590596
 30
0.0
 10
-69.88508698524558
 20
11.21940661558651
 30
0.0
 10
-70.28696798067769
 20
11.74576233299169
 30
0.0
 10
-70.47780772826155
 20
12.00811404602709
 30
0.0
 10
-70.6581535354733
 20
12.26959226791694
 30
0.0
  0
LWPOLYLINE
  5
27B
330
250
100
AcDbEntity
  8
0
  6
Continuous
 62
     7
370
    25
100
AcDbPolyline
 90
        9
 70
   128
 43
0.0
 10
-70.6867229014
 20
12.0820776279
 10
-70.7048012676
 20
12.0939605456
 10
-70.7170168529
 20
12.1107837098
 10
-70.7229002191
 20
12.1319006155
 10
-70.7222252717
 20
12.1564997521
 10
-70.7150179487
 20
12.1836357883
 10
-70.7015552234
 20
12.2122659017
 10
-70.6823544608
 20
12.2412898529
 10
-70.6581535355
 20
12.2695922679
  0
LWPOLYLINE
  5
27C
330
250
100
AcDbEntity
  8
0
  6
Continuous
 62
     7
370
    25
100
AcDbPolyline
 90
        9
 70
   128
 43
0.0
 10
-67.9605591712
 20
9.1309498923
 10
-67.9604083528
 20
9.1284667504
 10
-67.9599463976
 20
9.1263442558
 10
-67.95917442
 20
9.124587529
 10
-67.9580942825
 20
9.123200808
 10
-67.9567085909
 20
9.1221874384
 10
-67.9550206881
 20
9.121549865
 10
-67.9530346463
 20
9.1212896258
 10
-67.9507552569
 20
9.1214073488
  0
SPLINE
  5
27D
330
250
100
AcDbEntity
  8
0
  6
Continuous
 62
     7
370
    25
100
AcDbSpline
210
0.0
220
0.0
230
1.0
 70
     8
 71
     3
 72
    16
 73
    12
 74
     0
 42
0.000000001
 43
0.00000001
 40
0.0
 40
0.0
 40
0.0
 40
0.0
 40
0.1250000000000002
 40
0.1250000000000002
 40
0.2500000000000005
 40
0.2500000000000005
 40
0.5000000000000003
 40
0.5000000000000003
 40
0.7500000000000001
 40
0.7500000000000001
 40
1.0
 40
1.0
 40
1.0
 40
1.0
 10
-67.96055917123691
 20
9.130949892279482
 30
0.0
 10
-68.10072045018981
 20
9.245086257503718
 30
0.0
 10
-68.23797127788312
 20
9.369669027237983
 30
0.0
 10
-68.50040758274974
 20
9.6163864300568
 30
0.0
 10
-68.62632616623573
 20
9.739919294250331
 30
0.0
 10
-68.9952209917571
 20
10.11144045012037
 30
0.0
 10
-69.23010289320435
 20
10.36133413081182
 30
0.0
 10
-69.67827309237163
 20
10.85662946214659
 30
0.0
 10
-69.89209476780681
 20
11.10284327263511
 30
0.0
 10
-70.30255812464142
 20
11.59370143971341
 30
0.0
 10
-70.49912458669706
 20
11.83831782018606
 30
0.0
 10
-70.68672290142796
 20
12.08207762788043
 30
0.0
  0
LWPOLYLINE
  5
27E
330
250
100
AcDbEntity
  8
0
  6
Continuous
 62
     7
370
    25
100
AcDbPolyline
 90
        9
 70
   128
 43
0.0
 10
-77.5104968032
 20
23.3414231756
 10
-77.5379233717
 20
23.3183326674
 10
-77.5602258177
 20
23.2943203323
 10
-77.5765470707
 20
23.2703089508
 10
-77.5862599143
 20
23.2472212669
 10
-77.5889910892
 20
23.2259445273
 10
-77.584635638
 20
23.2072963852
 10
-77.5733609381
 20
23.1919934782
 10
-77.55560027
 20
23.1806238885
  0
LWPOLYLINE
  5
281
330
250
100
AcDbEntity
  8
0
  6
Continuous
 62
     7
370
    25
100
AcDbPolyline
 90
        9
 70
   128
 43
0.0
 10
-81.3039177125
 20
49.3836549688
 10
-81.334588587
 20
49.3828369617
 10
-81.3600106623
 20
49.380241208
 10
-81.3792069821
 20
49.375967461
 10
-81.3914398428
 20
49.3701799584
 10
-81.3962391423
 20
49.3631011107
 10
-81.3934204462
 20
49.355002954
 10
-81.3830920756
 20
49.3461966959
 10
-81.3656509437
 20
49.337020756
  0
SPLINE
  5
283
330
250
100
AcDbEntity
  8
0
  6
Continuous
 62
     7
370
    25
100
AcDbSpline
210
0.0
220
0.0
230
1.0
 70
     8
 71
     3
 72
    12
 73
     8
 74
     0
 42
0.000000001
 43
0.00000001
 40
0.0
 40
0.0
 40
0.0
 40
0.0
 40
0.2402629716443695
 40
0.487060860975991
 40
0.7272679715079012
 40
0.975330622902866
 40
1.0
 40
1.0
 40
1.0
 40
1.0
 10
-81.36565094373468
 20
49.33702075604858
 30
0.0
 10
-81.26204020641711
 20
49.94688694214641
 30
0.0
 10
-81.05200062112915
 20
51.18320707773782
 30
0.0
 10
-80.46231959448544
 20
52.8985999457736
 30
0.0
 10
-79.66633295357373
 20
54.432037344995
 30
0.0
 10
-79.01022057582013
 20
55.40577505344407
 30
0.0
 10
-78.60632071259943
 20
55.78890410568486
 30
0.0
 10
-78.56978683687399
 20
55.82355920328688
 30
0.0
  0
SPLINE
  5
284
330
250
100
AcDbEntity
  8
0
  6
Continuous
 62
     7
370
    25
100
AcDbSpline
210
0.0
220
0.0
230
1.0
 70
     8
 71
     3
 72
    11
 73
     7
 74
     0
 42
0.000000001
 43
0.00000001
 40
0.0
 40
0.0
 40
0.0
 40
0.0
 40
0.1664571249567428
 40
0.5337570854596676
 40
0.9058692625767931
 40
1.0
 40
1.0
 40
1.0
 40
1.0
 10
-77.7209479071225
 20
56.72441467881985
 30
0.0
 10
-77.71681765413165
 20
56.72887578089148
 30
0.0
 10
-77.70357369236567
 20
56.74318063471081
 30
0.0
 10
-77.66862742297486
 20
56.74667716813257
 30
0.0
 10
-77.63352120896879
 20
56.73766403486806
 30
0.0
 10
-77.61338263847205
 20
56.72662873672424
 30
0.0
 10
-77.6093168212073
 20
56.72440079776888
 30
0.0
  0
SPLINE
  5
285
330
250
100
AcDbEntity
  8
0
  6
Continuous
 62
     8
370
    25
100
AcDbSpline
210
0.0
220
0.0
230
1.0
 70
     8
 71
     3
 72
    11
 73
     7
 74
     0
 42
0.000000001
 43
0.00000001
 40
0.0
 40
0.0
 40
0.0
 40
0.0
 40
0.0933908138784652
 40
0.3671612972861041
 40
0.6409427645008653
 40
0.9999999999999999
 40
0.9999999999999999
 40
0.9999999999999999
 40
0.9999999999999999
 10
73.36575497018255
 20
-41.93376843287616
 30
0.0
 10
73.44078847783364
 20
-41.94325294066779
 30
0.0
 10
73.73577894707772
 20
-41.98054080700357
 30
0.0
 10
74.13038967025129
 20
-42.15918821145613
 30
0.0
 10
74.59619639303091
 20
-42.47718752427166
 30
0.0
 10
74.75184067535314
 20
-42.79946848688064
 30
0.0
 10
74.84014944264597
 20
-42.98232283980205
 30
0.0
  0
LINE
  5
287
330
250
100
AcDbEntity
  8
0
  6
Continuous
 62
     7
370
    25
100
AcDbLine
 10
-67.6080185744
 20
8.8822600051
 30
0.0
 11
31.2016339732
 21
-48.1593382461
 31
0.0
  0
LINE
  5
288
330
250
100
AcDbEntity
  8
0
  6
Continuous
 62
     7
370
    25
100
AcDbLine
 10
31.2272524113
 20
-48.1723809465
 30
0.0
 11
32.2456368777
 21
-48.6250546699
 31
0.0
  0
LINE
  5
289
330
250
100
AcDbEntity
  8
0
  6
Continuous
 62
     7
370
    25
100
AcDbLine
 10
49.1722989882
 20
-49.675467554
 30
0.0
 11
46.8951932188
 21
-48.6632899519
 31
0.0
  0
LINE
  5
28A
330
250
100
AcDbEntity
  8
0
  6
Continuous
 62
     7
370
    25
100
AcDbLine
 10
-81.3039177125
 20
49.3836549688
 30
0.0
 11
69.9902092135
 21
-37.9565854163
 31
0.0
  0
LINE
  5
28B
330
250
100
AcDbEntity
  8
0
  6
Continuous
 62
     7
370
    25
100
AcDbLine
 10
-70.6581535355
 20
12.2695922679
 30
0.0
 11
34.1629685894
 21
-48.2423535018
 31
0.0
  0
LINE
  5
28C
330
250
100
AcDbEntity
  8
0
  6
Continuous
 62
     7
370
    25
100
AcDbLine
 10
-77.6093168212
 20
56.7244007978
 30
0.0
 11
77.6093168212
 21
-32.8814090907
 31
0.0
  0
LINE
  5
28D
330
250
100
AcDbEntity
  8
0
  6
Continuous
 62
     7
370
    25
100
AcDbLine
 10
72.5654082623
 20
-41.8911185123
 30
0.0
 11
74.6705174952
 21
-43.106372205
 31
0.0
  0
LINE
  5
28E
330
250
100
AcDbEntity
  8
0
  6
Continuous
 62
     7
370
    25
100
AcDbLine
 10
31.3228139412
 20
-48.18412142
 30
0.0
 11
32.6032050286
 21
-48.7532575567
 31
0.0
  0
LINE
  5
28F
330
250
100
AcDbEntity
  8
0
  6
Continuous
 62
     7
370
    25
100
AcDbLine
 10
31.1927231643
 20
-48.1509794459
 30
0.0
 11
31.2016339732
 21
-48.1593382461
 31
0.0
  0
ARC
  5
290
330
250
100
AcDbEntity
  8
0
  6
Continuous
 62
     7
370
    25
100
AcDbCircle
 10
42.3074461176
 20
-7.441197848
 30
0.0
 40
41.47659943741215
100
AcDbArc
 50
276.3505089865
 51
312.2322688704
  0
ARC
  5
291
330
250
100
AcDbEntity
  8
0
  6
Continuous
 62
     7
370
    25
100
AcDbCircle
 10
34.4525082686
 20
-25.6771091684
 30
0.0
 40
43.93895742748469
100
AcDbArc
 50
336.8059345039
 51
350.1997310446
  0
ARC
  5
292
330
250
100
AcDbEntity
  8
0
  6
Continuous
 62
     7
370
    25
100
AcDbCircle
 10
45.310990529
 20
-10.979624168
 30
0.0
 40
38.88801869951428
100
AcDbArc
 50
275.6984603586
 51
300.3741657265
  0
ARC
  5
293
330
250
100
AcDbEntity
  8
0
  6
Continuous
 62
     7
370
    25
100
AcDbCircle
 10
-36.2620828711
 20
42.6472391809
 30
0.0
 40
45.54279507835425
100
AcDbArc
 50
171.4939424285
 51
205.0813696158
  0
ARC
  5
294
330
250
100
AcDbEntity
  8
0
  6
Continuous
 62
     7
370
    25
100
AcDbCircle
 10
42.2339022737
 20
-7.3802676691
 30
0.0
 40
41.29556612897812
100
AcDbArc
 50
276.3505089865
 51
312.2322688704
  0
ARC
  5
295
330
250
100
AcDbEntity
  8
0
  6
Continuous
 62
     7
370
    25
100
AcDbCircle
 10
41.3278031503
 20
11.0069925685
 30
0.0
 40
59.68098410756978
100
AcDbArc
 50
263.1048837183
 51
275.2624515757
  0
ARC
  5
296
330
250
100
AcDbEntity
  8
0
  6
Continuous
 62
     7
370
    25
100
AcDbCircle
 10
-18.9086814062
 20
51.9536494553
 30
0.0
 40
65.21374288071415
100
AcDbArc
 50
206.0238567416
 51
217.4827768649
  0
ARC
  5
297
330
250
100
AcDbEntity
  8
0
  6
Continuous
 62
     7
370
    25
100
AcDbCircle
 10
70.4594749586
 20
-37.6819384437
 30
0.0
 40
0.5437290677280682
100
AcDbArc
 50
210.3391410252
 51
239.7346244089
  0
ARC
  5
298
330
250
100
AcDbEntity
  8
0
  6
Continuous
 62
     7
370
    25
100
AcDbCircle
 10
47.0541706954
 20
-48.4629280472
 30
0.0
 40
0.2557708562607681
100
AcDbArc
 50
170.8912637429
 51
231.5697010325
  0
ARC
  5
299
330
250
100
AcDbEntity
  8
0
  6
Continuous
 62
     7
370
    25
100
AcDbCircle
 10
41.4081633271
 20
10.9095379123
 30
0.0
 40
59.8249890662058
100
AcDbArc
 50
263.1048837183
 51
275.2624515757
  0
ARC
  5
29A
330
250
100
AcDbEntity
  8
0
  6
Continuous
 62
     7
370
    25
100
AcDbCircle
 10
43.6852690966
 20
9.8973603102
 30
0.0
 40
59.8249890662067
100
AcDbArc
 50
263.1048837183
 51
275.2624515757
  0
ARC
  5
29B
330
250
100
AcDbEntity
  8
0
  6
Continuous
 62
     7
370
    25
100
AcDbCircle
 10
34.3679346896
 20
-48.3170643536
 30
0.0
 40
0.2181577722279427
100
AcDbArc
 50
159.9730271147
 51
229.4267728691
  0
ARC
  5
29C
330
250
100
AcDbEntity
  8
0
  6
Continuous
 62
     7
370
    25
100
AcDbCircle
 10
31.377661996
 20
-47.9953549713
 30
0.0
 40
0.1965733482698307
100
AcDbArc
 50
231.2144229693
 51
253.7982277294
  0
ARC
  5
29D
330
250
100
AcDbEntity
  8
0
  6
Continuous
 62
     7
370
    25
100
AcDbCircle
 10
-66.3942153126
 20
10.9870078062
 30
0.0
 40
2.429666986390919
100
AcDbArc
 50
230.1604995199
 51
240.0280490824
  0
ARC
  5
29E
330
250
100
AcDbEntity
  8
0
  6
Continuous
 62
     7
370
    25
100
AcDbCircle
 10
32.601023122
 20
-48.7481609938
 30
0.0
 40
0.0055439760288668
100
AcDbArc
 50
215.8166056512
 51
293.1764138651
  0
ARC
  5
29F
330
250
100
AcDbEntity
  8
0
  6
Continuous
 62
     7
370
    25
100
AcDbCircle
 10
31.2948563825
 20
-48.0219711568
 30
0.0
 40
0.1645427996659962
100
AcDbArc
 50
231.6320624702
 51
279.7826186808
  0
ARC
  5
2A0
330
250
100
AcDbEntity
  8
0
  6
Continuous
 62
     7
370
    25
100
AcDbCircle
 10
33.2860289316
 20
-46.2860622414
 30
0.0
 40
2.559941641160752
100
AcDbArc
 50
246.0203336072
 51
254.5299771757
  0
ARC
  5
2A1
330
250
100
AcDbEntity
  8
0
  6
Continuous
 62
     7
370
    25
100
AcDbCircle
 10
33.2204594075
 20
-46.3677124238
 30
0.0
 40
2.457354351323988
100
AcDbArc
 50
242.6889622863
 51
255.2159751841
  0
ARC
  5
2A2
330
250
100
AcDbEntity
  8
0
  6
Continuous
 62
     7
370
    25
100
AcDbCircle
 10
-18.8123838534
 20
51.8618889504
 30
0.0
 40
65.37109789900994
100
AcDbArc
 50
206.0238567416
 51
217.4827768649
  0
ARC
  5
2A3
330
250
100
AcDbEntity
  8
0
  6
Continuous
 62
     7
370
    25
100
AcDbCircle
 10
-66.3152361278
 20
11.0961300012
 30
0.0
 40
2.563010100996116
100
AcDbArc
 50
230.0626573887
 51
242.3419750249
  0
ARC
  5
2A4
330
250
100
AcDbEntity
  8
0
  6
Continuous
 62
     7
370
    25
100
AcDbCircle
 10
-36.1263597373
 20
42.5710735741
 30
0.0
 40
45.74244757476577
100
AcDbArc
 50
171.4939424285
 51
205.0813696158
  0
ARC
  5
2A5
330
250
100
AcDbEntity
  8
0
  6
Continuous
 62
     8
370
    25
100
AcDbCircle
 10
31.2197619624
 20
-48.1130511009
 30
0.0
 40
0.0497103994150022
100
AcDbArc
 50
248.6126035102
 51
314.3749171034
  0
VIEWPORT
  5
389
330
250
100
AcDbEntity
  8
0
100
AcDbViewport
 10
0.0
 20
0.0
 30
0.0
 40
205.6
 41
156.0
 68
     1
 69
     1
 12
-13.0911322451
 22
0.9264697138
 13
0.0
 23
0.0
 14
10.0
 24
10.0
 15
10.0
 25
10.0
 16
0.0
 26
0.0
 36
1.0
 17
0.0
 27
0.0
 37
0.0
 42
50.0
 43
0.0
 44
0.0
 45
27.8940017838
 50
0.0
 51
0.0
 72
   100
 90
   557152
  1

281
     0
 71
     1
 74
     0
110
0.0
120
0.0
130
0.0
111
1.0
121
0.0
131
0.0
112
0.0
122
1.0
132
0.0
 79
     0
146
0.0
  0
ENDBLK
  5
253
330
250
100
AcDbEntity
  8
0
100
AcDbBlockEnd
  0
BLOCK
  5
2A8
330
2A6
100
AcDbEntity
  8
0
100
AcDbBlockBegin
  2
*Paper_Space5
 70
     0
 10
0.0
 20
0.0
 30
0.0
  3
*Paper_Space5
  1

  0
SPLINE
  5
2AE
330
2A6
100
AcDbEntity
  8
0
  6
Continuous
 62
     7
370
    25
100
AcDbSpline
210
0.0
220
0.0
230
1.0
 70
     8
 71
     3
 72
    18
 73
    14
 74
     0
 42
0.000000001
 43
0.00000001
 40
0.0
 40
0.0
 40
0.0
 40
0.0
 40
0.1249999999999999
 40
0.1249999999999999
 40
0.2499999999999999
 40
0.2499999999999999
 40
0.5000000000000007
 40
0.5000000000000007
 40
0.6250000000000006
 40
0.6250000000000006
 40
0.7500000000000006
 40
0.7500000000000006
 40
1.0
 40
1.0
 40
1.0
 40
1.0
 10
97.24662324839721
 20
-14.11788782383031
 30
0.0
 10
97.0071289862907
 20
-14.27930479492569
 30
0.0
 10
96.76363737975254
 20
-14.45652461492526
 30
0.0
 10
96.26744946063997
 20
-14.84109603746066
 30
0.0
 10
96.01423396541058
 20
-15.04900519034847
 30
0.0
 10
95.25367855994425
 20
-15.70357108613017
 30
0.0
 10
94.74071301057444
 20
-16.18415334904133
 30
0.0
 10
93.95616026140439
 20
-16.96323596578562
 30
0.0
 10
93.69051931727051
 20
-17.2344267818574
 30
0.0
 10
93.1620828598214
 20
-17.78665359403715
 30
0.0
 10
92.89971078902387
 20
-18.06713914637127
 30
0.0
 10
92.11675998654839
 20
-18.92006437667262
 30
0.0
 10
91.6002283175355
 20
-19.50380271095834
 30
0.0
 10
91.08721017349006
 20
-20.10069932055222
 30
0.0
  0
SPLINE
  5
2B0
330
2A6
100
AcDbEntity
  8
0
  6
Continuous
 62
     7
370
    25
100
AcDbSpline
210
0.0
220
0.0
230
1.0
 70
     8
 71
     3
 72
    14
 73
    10
 74
     0
 42
0.000000001
 43
0.00000001
 40
0.0
 40
0.0
 40
0.0
 40
0.0
 40
0.1815604423100825
 40
0.3629214380422599
 40
0.4986786982675502
 40
0.6343325526342694
 40
0.7707451471912539
 40
0.9070449237928376
 40
1.0
 40
1.0
 40
1.0
 40
1.0
 10
85.55151113393504
 20
-27.80416319787912
 30
0.0
 10
85.97115851890239
 20
-27.48190498721476
 30
0.0
 10
86.8099923005634
 20
-26.83774257084714
 30
0.0
 10
88.00924595591069
 20
-26.00432019033627
 30
0.0
 10
89.0882966171781
 20
-25.32535565177889
 30
0.0
 10
90.03925272045765
 20
-24.79770417212488
 30
0.0
 10
90.9359573962698
 20
-24.39595517795705
 30
0.0
 10
91.68208840556358
 20
-24.14886200201585
 30
0.0
 10
92.0692755343821
 20
-24.11546517093002
 30
0.0
 10
92.22626679814299
 20
-24.10192388732958
 30
0.0
  0
SPLINE
  5
2BA
330
2A6
100
AcDbEntity
  8
0
  6
Continuous
 62
     7
370
    25
100
AcDbSpline
210
0.0
220
0.0
230
1.0
 70
     8
 71
     3
 72
    18
 73
    14
 74
     0
 42
0.000000001
 43
0.00000001
 40
0.0
 40
0.0
 40
0.0
 40
0.0
 40
0.2500000000000004
 40
0.2500000000000004
 40
0.3750000000000005
 40
0.3750000000000005
 40
0.5000000000000006
 40
0.5000000000000006
 40
0.7500000000000008
 40
0.7500000000000008
 40
0.8750000000000004
 40
0.8750000000000004
 40
1.0
 40
1.0
 40
1.0
 40
1.0
 10
90.88246314997025
 20
-19.93276041774361
 30
0.0
 10
91.39689385116095
 20
-19.32628186244986
 30
0.0
 10
91.91510688141156
 20
-18.73364172735563
 30
0.0
 10
92.7009708238014
 20
-17.86831043462136
 30
0.0
 10
92.96437939286824
 20
-17.58384798566048
 30
0.0
 10
93.4950189759831
 20
-17.02397738280766
 30
0.0
 10
93.76189436191869
 20
-16.74905774833409
 30
0.0
 10
94.5501606541014
 20
-15.95958201327609
 30
0.0
 10
95.06570396095816
 20
-15.47296723352858
 30
0.0
 10
95.8302694171506
 20
-14.81032711407872
 30
0.0
 10
96.08486721712035
 20
-14.59986014881332
 30
0.0
 10
96.5841416525741
 20
-14.21026709131005
 30
0.0
 10
96.8292143413182
 20
-14.0306794027791
 30
0.0
 10
97.07032662379733
 20
-13.86699222059646
 30
0.0
  0
SPLINE
  5
2BB
330
2A6
100
AcDbEntity
  8
0
  6
Continuous
 62
     7
370
    25
100
AcDbSpline
210
0.0
220
0.0
230
1.0
 70
     8
 71
     3
 72
    10
 73
     6
 74
     0
 42
0.000000001
 43
0.00000001
 40
0.0
 40
0.0
 40
0.0
 40
0.0
 40
0.5
 40
0.5
 40
1.0
 40
1.0
 40
1.0
 40
1.0
 10
97.07032662379733
 20
-13.86699222059646
 30
0.0
 10
97.12289259099678
 20
-13.88127852412883
 30
0.0
 10
97.17425103238615
 20
-13.9183083325916
 30
0.0
 10
97.24134396591838
 20
-14.01310414787844
 30
0.0
 10
97.25641781345317
 20
-14.07047492397356
 30
0.0
 10
97.24662324839721
 20
-14.11788782383031
 30
0.0
  0
SPLINE
  5
2BC
330
2A6
100
AcDbEntity
  8
0
  6
Continuous
 62
     7
370
    25
100
AcDbSpline
210
0.0
220
0.0
230
1.0
 70
     8
 71
     3
 72
    18
 73
    14
 74
     0
 42
0.000000001
 43
0.00000001
 40
0.0
 40
0.0
 40
0.0
 40
0.0
 40
0.1249999999999993
 40
0.1249999999999993
 40
0.2499999999999987
 40
0.2499999999999987
 40
0.4999999999999982
 40
0.4999999999999982
 40
0.6249999999999986
 40
0.6249999999999986
 40
0.7499999999999989
 40
0.7499999999999989
 40
1.0
 40
1.0
 40
1.0
 40
1.0
 10
-97.07032662379733
 20
38.89627740109877
 30
0.0
 10
-97.19660436989047
 20
38.70138065253287
 30
0.0
 10
-97.31632813944913
 20
38.48772581366978
 30
0.0
 10
-97.54127880769315
 20
38.02357743428621
 30
0.0
 10
-97.6465471061295
 20
37.7725259102482
 30
0.0
 10
-97.93280090740183
 20
36.97989093197007
 30
0.0
 10
-98.08676783307938
 20
36.39500743946272
 30
0.0
 10
-98.25678365042363
 20
35.43750447284883
 30
0.0
 10
-98.30342866186217
 20
35.10273094155308
 30
0.0
 10
-98.3736273051729
 20
34.4177223573174
 30
0.0
 10
-98.39730498866422
 20
34.0681061904686
 30
0.0
 10
-98.43468260905036
 20
32.9993523535356
 30
0.0
 10
-98.414921927124
 20
32.26050249085392
 30
0.0
 10
-98.34958937285128
 20
31.49645670554908
 30
0.0
  0
SPLINE
  5
2BE
330
2A6
100
AcDbEntity
  8
0
  6
Continuous
 62
     7
370
    25
100
AcDbSpline
210
0.0
220
0.0
230
1.0
 70
     8
 71
     3
 72
    13
 73
     9
 74
     0
 42
0.000000001
 43
0.00000001
 40
0.0
 40
0.0
 40
0.0
 40
0.0
 40
0.0224523444403367
 40
0.204704290770329
 40
0.3925830919281222
 40
0.5924915124029144
 40
0.7996235130979911
 40
1.0
 40
1.0
 40
1.0
 40
1.0
 10
93.2836409315323
 20
-24.74367287949669
 30
0.0
 10
93.28098754775137
 20
-24.72619491868799
 30
0.0
 10
93.2567959072543
 20
-24.56684347185066
 30
0.0
 10
93.04993435087887
 20
-24.38872440842007
 30
0.0
 10
92.71052005749317
 20
-24.18516655423335
 30
0.0
 10
92.21560067353188
 20
-24.12591658459763
 30
0.0
 10
91.61649128568143
 20
-24.1892020225981
 30
0.0
 10
91.13953912559573
 20
-24.34801557219846
 30
0.0
 10
90.90501640725473
 20
-24.4261059730365
 30
0.0
  0
SPLINE
  5
2BF
330
2A6
100
AcDbEntity
  8
0
  6
Continuous
 62
     7
370
    25
100
AcDbSpline
210
0.0
220
0.0
230
1.0
 70
     8
 71
     3
 72
    12
 73
     8
 74
     0
 42
0.000000001
 43
0.00000001
 40
0.0
 40
0.0
 40
0.0
 40
0.0
 40
0.4999999999999674
 40
0.4999999999999674
 40
0.7499999999999837
 40
0.7499999999999837
 40
1.0
 40
1.0
 40
1.0
 40
1.0
 10
93.60677362626008
 20
-25.2072952465935
 30
0.0
 10
93.58578512882099
 20
-25.25181581624099
 30
0.0
 10
93.56032599799006
 20
-25.29270045531771
 30
0.0
 10
93.51042217774517
 20
-25.34449959678629
 30
0.0
 10
93.49177264564175
 20
-25.36016258913547
 30
0.0
 10
93.4484946511647
 20
-25.38265369955551
 30
0.0
 10
93.42311320261688
 20
-25.39040035330204
 30
0.0
 10
93.39460543279246
 20
-25.3826525523077
 30
0.0
  0
SPLINE
  5
2C0
330
2A6
100
AcDbEntity
  8
0
  6
Continuous
 62
     7
370
    25
100
AcDbSpline
210
0.0
220
0.0
230
1.0
 70
     8
 71
     3
 72
    16
 73
    12
 74
     0
 42
0.000000001
 43
0.00000001
 40
0.0
 40
0.0
 40
0.0
 40
0.0
 40
0.2500000000000022
 40
0.2500000000000022
 40
0.5000000000000044
 40
0.5000000000000044
 40
0.7500000000000067
 40
0.7500000000000067
 40
0.8750000000000033
 40
0.8750000000000033
 40
1.0
 40
1.0
 40
1.0
 40
1.0
 10
53.57798780472703
 20
-37.63329859504701
 30
0.0
 10
53.23811419170635
 20
-37.66173561274428
 30
0.0
 10
52.90529392773522
 20
-37.6912683331279
 30
0.0
 10
52.2532642844961
 20
-37.75241062506129
 30
0.0
 10
51.93398230593761
 20
-37.78398279523537
 30
0.0
 10
51.31214887518035
 20
-37.85086589461227
 30
0.0
 10
51.00799792226673
 20
-37.88608189799906
 30
0.0
 10
50.58509086688368
 20
-37.94542181128892
 30
0.0
 10
50.44931308395012
 20
-37.96630631518431
 30
0.0
 10
50.19764891693882
 20
-38.01343158768562
 30
0.0
 10
50.07858650606934
 20
-38.03937343692956
 30
0.0
 10
49.99905918286879
 20
-38.07210769641899
 30
0.0
  0
SPLINE
  5
2C3
330
2A6
100
AcDbEntity
  8
0
  6
Continuous
 62
     7
370
    25
100
AcDbSpline
210
0.0
220
0.0
230
1.0
 70
     8
 71
     3
 72
    16
 73
    12
 74
     0
 42
0.000000001
 43
0.00000001
 40
0.0
 40
0.0
 40
0.0
 40
0.0
 40
0.1250000000000004
 40
0.1250000000000004
 40
0.2500000000000007
 40
0.2500000000000007
 40
0.5000000000000004
 40
0.5000000000000004
 40
0.7500000000000002
 40
0.7500000000000002
 40
1.0
 40
1.0
 40
1.0
 40
1.0
 10
50.84412619736
 20
-38.62067973952076
 30
0.0
 10
51.01244492413229
 20
-38.64558408245295
 30
0.0
 10
51.19564915724645
 20
-38.6612796535256
 30
0.0
 10
51.55725218872038
 20
-38.68552077736985
 30
0.0
 10
51.7377304320332
 20
-38.69365340756846
 30
0.0
 10
52.2786980796883
 20
-38.71095207938732
 30
0.0
 10
52.64011766635112
 20
-38.71291179210685
 30
0.0
 10
53.35140743255735
 20
-38.70409893315379
 30
0.0
 10
53.70248230162447
 20
-38.69316499711194
 30
0.0
 10
54.39730867468872
 20
-38.65980403981323
 30
0.0
 10
54.74101982203861
 20
-38.63734109501406
 30
0.0
 10
55.0808934350593
 20
-38.60890407731678
 30
0.0
  0
SPLINE
  5
2C7
330
2A6
100
AcDbEntity
  8
0
  6
Continuous
 62
     7
370
    25
100
AcDbSpline
210
0.0
220
0.0
230
1.0
 70
     8
 71
     3
 72
    16
 73
    12
 74
     0
 42
0.000000001
 43
0.00000001
 40
0.0
 40
0.0
 40
0.0
 40
0.0
 40
0.1249999999999999
 40
0.1249999999999999
 40
0.2499999999999998
 40
0.2499999999999998
 40
0.4999999999999999
 40
0.4999999999999999
 40
0.7499999999999999
 40
0.7499999999999999
 40
1.0
 40
1.0
 40
1.0
 40
1.0
 10
49.93092323049067
 20
-38.04630675381539
 30
0.0
 10
50.00123839428581
 20
-38.00603774058288
 30
0.0
 10
50.11274486938286
 20
-37.97077359044619
 30
0.0
 10
50.35469841087522
 20
-37.90542234586226
 30
0.0
 10
50.48741556592927
 20
-37.87542946909284
 30
0.0
 10
50.90447827122761
 20
-37.78878349174956
 30
0.0
 10
51.20957266335972
 20
-37.73522784526229
 30
0.0
 10
51.83618878570876
 20
-37.63234717791158
 30
0.0
 10
52.15947783944082
 20
-37.58302696735868
 30
0.0
 10
52.82207578987154
 20
-37.48662305180363
 30
0.0
 10
53.16147162442942
 20
-37.43958223255974
 30
0.0
 10
53.50929125753702
 20
-37.393769277239
 30
0.0
  0
SPLINE
  5
2C9
330
2A6
100
AcDbEntity
  8
0
  6
Continuous
 62
     7
370
    25
100
AcDbSpline
210
0.0
220
0.0
230
1.0
 70
     8
 71
     3
 72
    16
 73
    12
 74
     0
 42
0.000000001
 43
0.00000001
 40
0.0
 40
0.0
 40
0.0
 40
0.0
 40
0.1250000000000001
 40
0.1250000000000001
 40
0.2500000000000001
 40
0.2500000000000001
 40
0.5000000000000001
 40
0.5000000000000001
 40
0.7500000000000001
 40
0.7500000000000001
 40
1.0
 40
1.0
 40
1.0
 40
1.0
 10
-74.15068889447281
 20
-4.323583325587882
 30
0.0
 10
-74.29347744431092
 20
-4.22539728925011
 30
0.0
 10
-74.44788345582079
 20
-4.117863823068985
 30
0.0
 10
-74.75176208485315
 20
-3.904167090305109
 30
0.0
 10
-74.90248242767998
 20
-3.797141974942577
 30
0.0
 10
-75.35208860175585
 20
-3.474953966653125
 30
0.0
 10
-75.64991616545859
 20
-3.257537051624741
 30
0.0
 10
-76.22884041710171
 20
-2.827016342228494
 30
0.0
 10
-76.51106962893444
 20
-2.613129241782072
 30
0.0
 10
-77.06317414310278
 20
-2.186595224274383
 30
0.0
 10
-77.3330020378403
 20
-1.973980449493446
 30
0.0
 10
-77.59636690950573
 20
-1.762060641875203
 30
0.0
  0
SPLINE
  5
2D5
330
2A6
100
AcDbEntity
  8
0
  6
Continuous
 62
     7
370
    25
100
AcDbSpline
210
0.0
220
0.0
230
1.0
 70
     8
 71
     3
 72
    10
 73
     6
 74
     0
 42
0.000000001
 43
0.00000001
 40
0.0
 40
0.0
 40
0.0
 40
0.0
 40
0.0094808515031953
 40
0.8170508537956179
 40
1.0
 40
1.0
 40
1.0
 40
1.0
 10
-73.50789278097626
 20
-4.760043533312169
 30
0.0
 10
-73.50711870408293
 20
-4.760556827146427
 30
0.0
 10
-73.4404094864166
 20
-4.804792006379819
 30
0.0
 10
-73.38841819443913
 20
-4.83729553245484
 30
0.0
 10
-73.34346201624113
 20
-4.866092217065065
 30
0.0
 10
-73.33515859835121
 20
-4.871410972256176
 30
0.0
  0
SPLINE
  5
2D7
330
2A6
100
AcDbEntity
  8
0
  6
Continuous
 62
     7
370
    25
100
AcDbSpline
210
0.0
220
0.0
230
1.0
 70
     8
 71
     3
 72
    10
 73
     6
 74
     0
 42
0.000000001
 43
0.00000001
 40
0.0
 40
0.0
 40
0.0
 40
0.0
 40
0.3323136057709554
 40
0.663904680152083
 40
1.0
 40
1.0
 40
1.0
 40
1.0
 10
-74.51567095358483
 20
-4.105848159853254
 30
0.0
 10
-74.88065392178174
 20
-3.866863647843865
 30
0.0
 10
-75.60982629556877
 20
-3.389414234844956
 30
0.0
 10
-76.65514588205508
 20
-2.676284245017269
 30
0.0
 10
-77.31176638758414
 20
-2.206776128313166
 30
0.0
 10
-77.64229143756562
 20
-1.970438407462853
 30
0.0
  0
LWPOLYLINE
  5
2D9
330
2A6
100
AcDbEntity
  8
0
  6
Continuous
 62
     7
370
    25
100
AcDbPolyline
 90
        9
 70
   128
 43
0.0
 10
-87.8761069214
 20
7.3779954087
 10
-87.9021995533
 20
7.3496261817
 10
-87.9246031428
 20
7.3206033555
 10
-87.9424567325
 20
7.2920422611
 10
-87.9550742189
 20
7.2650404853
 10
-87.9619707191
 20
7.2406356913
 10
-87.9628812044
 20
7.2197657415
 10
-87.9577706856
 20
7.2032326565
 10
-87.9468355568
 20
7.1916717934
  0
LWPOLYLINE
  5
2DA
330
2A6
100
AcDbEntity
  8
0
  6
Continuous
 62
     7
370
    25
100
AcDbPolyline
 90
        9
 70
   128
 43
0.0
 10
-77.6422914376
 20
-1.9704384075
 10
-77.6537031703
 20
-1.9584537801
 10
-77.6602251855
 20
-1.9406656871
 10
-77.6616068457
 20
-1.9177577151
 10
-77.6577950545
 20
-1.8906102045
 10
-77.6489362969
 20
-1.8602664189
 10
-77.63537101
 20
-1.827892453
 10
-77.6176205002
 20
-1.7947324202
 10
-77.5963669095
 20
-1.7620606419
  0
LWPOLYLINE
  5
2DC
330
2A6
100
AcDbEntity
  8
0
  6
Continuous
 62
     7
370
    25
100
AcDbPolyline
 90
        9
 70
   128
 43
0.0
 10
-98.3495893729
 20
31.4964567055
 10
-98.3846394034
 20
31.4887146836
 10
-98.4156561636
 20
31.4795263706
 10
-98.4414476969
 20
31.4692448682
 10
-98.4610228491
 20
31.4582652889
 10
-98.473629358
 20
31.4470095717
 10
-98.4787827627
 20
31.4359102674
 10
-98.4762850206
 20
31.4253939162
 10
-98.4662321186
 20
31.4158646555
  0
SPLINE
  5
2E0
330
2A6
100
AcDbEntity
  8
0
  6
Continuous
 62
     7
370
    25
100
AcDbSpline
210
0.0
220
0.0
230
1.0
 70
     8
 71
     3
 72
    18
 73
    14
 74
     0
 42
0.000000001
 43
0.00000001
 40
0.0
 40
0.0
 40
0.0
 40
0.0
 40
0.2499999999999999
 40
0.2499999999999999
 40
0.3749999999999998
 40
0.3749999999999998
 40
0.4999999999999996
 40
0.4999999999999996
 40
0.7499999999999993
 40
0.7499999999999993
 40
0.8749999999999997
 40
0.8749999999999997
 40
1.0
 40
1.0
 40
1.0
 40
1.0
 10
-98.46623211855935
 20
31.41586465546688
 30
0.0
 10
-98.53614930886319
 20
32.1711905981436
 30
0.0
 10
-98.56080952417958
 20
32.90201329025066
 30
0.0
 10
-98.53106262533137
 20
33.9596432023505
 30
0.0
 10
-98.50997614221706
 20
34.30570500729218
 30
0.0
 10
-98.44502857790063
 20
34.98389816925973
 30
0.0
 10
-98.40105114253872
 20
35.31533237734127
 30
0.0
 10
-98.238902769867
 20
36.26357116710525
 30
0.0
 10
-98.09006486758055
 20
36.843115522182
 30
0.0
 10
-97.81115774770907
 20
37.628583101514
 30
0.0
 10
-97.70829360437537
 20
37.87735453020728
 30
0.0
 10
-97.48809646356496
 20
38.33693433251818
 30
0.0
 10
-97.37067467490021
 20
38.54841722766631
 30
0.0
 10
-97.24662324839721
 20
38.74120908783798
 30
0.0
  0
SPLINE
  5
2E1
330
2A6
100
AcDbEntity
  8
0
  6
Continuous
 62
     7
370
    25
100
AcDbSpline
210
0.0
220
0.0
230
1.0
 70
     8
 71
     3
 72
    10
 73
     6
 74
     0
 42
0.000000001
 43
0.00000001
 40
0.0
 40
0.0
 40
0.0
 40
0.0
 40
0.5
 40
0.5
 40
1.0
 40
1.0
 40
1.0
 40
1.0
 10
-97.24662324839721
 20
38.74120908783798
 30
0.0
 10
-97.25641368980207
 20
38.79392369057021
 30
0.0
 10
-97.24146315657056
 20
38.84294365152337
 30
0.0
 10
-97.1743559295439
 20
38.90143460178001
 30
0.0
 10
-97.12287174748334
 20
38.9105580398146
 30
0.0
 10
-97.07032662379767
 20
38.89627740110273
 30
0.0
  0
SPLINE
  5
2E2
330
2A6
100
AcDbEntity
  8
0
  6
Continuous
 62
     8
370
    25
100
AcDbSpline
210
0.0
220
0.0
230
1.0
 70
     8
 71
     3
 72
    12
 73
     8
 74
     0
 42
0.000000001
 43
0.00000001
 40
0.0
 40
0.0
 40
0.0
 40
0.0
 40
0.0521865189314797
 40
0.2883925965346885
 40
0.5032780243744159
 40
0.7181720735237287
 40
1.0
 40
1.0
 40
1.0
 40
1.0
 10
92.22626679814297
 20
-24.10192388732958
 30
0.0
 10
92.27262392594183
 20
-24.09536025916433
 30
0.0
 10
92.52880220200893
 20
-24.05908840566619
 30
0.0
 10
92.87959880057292
 20
-24.12965603799413
 30
0.0
 10
93.25297300360762
 20
-24.32077850941489
 30
0.0
 10
93.52910985884296
 20
-24.65600013840494
 30
0.0
 10
93.57866005451034
 20
-25.00773147194291
 30
0.0
 10
93.60677362626008
 20
-25.20729524659349
 30
0.0
  0
SPLINE
  5
2E4
330
2A6
100
AcDbEntity
  8
0
  6
Continuous
 62
     8
370
    25
100
AcDbSpline
210
0.0
220
0.0
230
1.0
 70
     8
 71
     3
 72
    10
 73
     6
 74
     0
 42
0.000000001
 43
0.00000001
 40
0.0
 40
0.0
 40
0.0
 40
0.0
 40
0.182949146204521
 40
0.9905191484967669
 40
1.0
 40
1.0
 40
1.0
 40
1.0
 10
-74.18022561283904
 20
-4.322838929155012
 30
0.0
 10
-74.20007976759237
 20
-4.310022056995805
 30
0.0
 10
-74.30757368526517
 20
-4.240629236308137
 30
0.0
 10
-74.42250298872283
 20
-4.167269739104214
 30
0.0
 10
-74.51460225696488
 20
-4.106552704964158
 30
0.0
 10
-74.51567095358483
 20
-4.105848159853254
 30
0.0
  0
LINE
  5
2E5
330
2A6
100
AcDbEntity
  8
0
  6
Continuous
 62
     7
370
    25
100
AcDbLine
 10
-73.1882011567
 20
-4.9365800653
 30
0.0
 11
50.5512127283
 21
-38.5663013443
 31
0.0
  0
LINE
  5
2E6
330
2A6
100
AcDbEntity
  8
0
  6
Continuous
 62
     7
370
    25
100
AcDbLine
 10
-74.5156858334
 20
-4.1058707477
 30
0.0
 11
-73.5079076608
 21
-4.7600661211
 31
0.0
  0
LINE
  5
2E7
330
2A6
100
AcDbEntity
  8
0
  6
Continuous
 62
     7
370
    25
100
AcDbLine
 10
69.2136594888
 20
-36.0883311532
 30
0.0
 11
67.7107538585
 21
-35.1127256709
 31
0.0
  0
LINE
  5
2E8
330
2A6
100
AcDbEntity
  8
0
  6
Continuous
 62
     7
370
    25
100
AcDbLine
 10
-98.3495893729
 20
31.4964567055
 30
0.0
 11
90.88246315
 21
-19.9327604177
 31
0.0
  0
LINE
  5
2E9
330
2A6
100
AcDbEntity
  8
0
  6
Continuous
 62
     7
370
    25
100
AcDbLine
 10
-77.5963669095
 20
-1.7620606419
 30
0.0
 11
53.5092912575
 21
-37.3937692772
 31
0.0
  0
LINE
  5
2EA
330
2A6
100
AcDbEntity
  8
0
  6
Continuous
 62
     7
370
    25
100
AcDbLine
 10
-97.0703266238
 20
38.8962774011
 30
0.0
 11
97.0703266238
 21
-13.8669922206
 31
0.0
  0
LINE
  5
2EB
330
2A6
100
AcDbEntity
  8
0
  6
Continuous
 62
     7
370
    25
100
AcDbLine
 10
49.9990591829
 20
-38.0721076964
 30
0.0
 11
50.8441261974
 21
-38.6206797395
 31
0.0
  0
LINE
  5
2EC
330
2A6
100
AcDbEntity
  8
0
  6
Continuous
 62
     7
370
    25
100
AcDbLine
 10
90.5165828121
 20
-24.6004676726
 30
0.0
 11
93.3946054328
 21
-25.3826525523
 31
0.0
  0
LINE
  5
2ED
330
2A6
100
AcDbEntity
  8
0
  6
Continuous
 62
     7
370
    25
100
AcDbLine
 10
49.7402028652
 20
-38.1090230706
 30
0.0
 11
-73.7065368999
 21
-4.5588443461
 31
0.0
  0
LINE
  5
2EE
330
2A6
100
AcDbEntity
  8
0
  6
Continuous
 62
     7
370
    25
100
AcDbLine
 10
50.3343748585
 20
-38.4947275636
 30
0.0
 11
49.7402028652
 21
-38.1090230706
 31
0.0
  0
LINE
  5
2EF
330
2A6
100
AcDbEntity
  8
0
  6
Continuous
 62
     7
370
    25
100
AcDbLine
 10
-73.1123649066
 20
-4.9445488391
 30
0.0
 11
50.3343748585
 21
-38.4947275636
 31
0.0
  0
LINE
  5
2F0
330
2A6
100
AcDbEntity
  8
0
  6
Continuous
 62
     7
370
    25
100
AcDbLine
 10
-73.7065368999
 20
-4.5588443461
 30
0.0
 11
-73.1123649066
 21
-4.9445488391
 31
0.0
  0
LINE
  5
2F1
330
2A6
100
AcDbEntity
  8
0
  6
Continuous
 62
     7
370
    25
100
AcDbLine
 10
-73.3351585984
 20
-4.8714109723
 30
0.0
 11
-74.1802256128
 21
-4.3228389292
 31
0.0
  0
LINE
  5
2F2
330
2A6
100
AcDbEntity
  8
0
  6
Continuous
 62
     8
370
    25
100
AcDbLine
 10
93.3946054328
 20
-25.3826525523
 30
0.0
 11
93.2836409315
 21
-24.7436728795
 31
0.0
  0
ARC
  5
2F3
330
2A6
100
AcDbEntity
  8
0
  6
Continuous
 62
     7
370
    25
100
AcDbCircle
 10
54.761892228
 20
10.7577187752
 30
0.0
 40
47.663095694812
100
AcDbArc
 50
285.7639510927
 51
319.6520436788
  0
ARC
  5
2F4
330
2A6
100
AcDbEntity
  8
0
  6
Continuous
 62
     7
370
    25
100
AcDbCircle
 10
48.7403512737
 20
-4.3388436915
 30
0.0
 40
49.48220008274727
100
AcDbArc
 50
335.0557292298
 51
348.6017433816
  0
ARC
  5
2F5
330
2A6
100
AcDbEntity
  8
0
  6
Continuous
 62
     7
370
    25
100
AcDbCircle
 10
56.7176922441
 20
8.8085949543
 30
0.0
 40
46.60346737400361
100
AcDbArc
 50
285.5532503275
 51
308.2216605124
  0
ARC
  5
2F6
330
2A6
100
AcDbEntity
  8
0
  6
Continuous
 62
     7
370
    25
100
AcDbCircle
 10
-57.4836620828
 20
34.9092601314
 30
0.0
 40
41.00818504270373
100
AcDbArc
 50
184.7738190736
 51
222.1721353437
  0
ARC
  5
2F7
330
2A6
100
AcDbEntity
  8
0
  6
Continuous
 62
     7
370
    25
100
AcDbCircle
 10
54.7156946656
 20
10.7909696468
 30
0.0
 40
47.4550601272657
100
AcDbArc
 50
285.7639510927
 51
319.6520436788
  0
ARC
  5
2F8
330
2A6
100
AcDbEntity
  8
0
  6
Continuous
 62
     7
370
    25
100
AcDbCircle
 10
46.9637794729
 20
40.0895397522
 30
0.0
 40
77.75928820839685
100
AcDbArc
 50
274.8286773022
 51
285.3960289568
  0
ARC
  5
2F9
330
2A6
100
AcDbEntity
  8
0
  6
Continuous
 62
     7
370
    25
100
AcDbCircle
 10
-37.1603298957
 20
54.0667859701
 30
0.0
 40
68.9342672653158
100
AcDbArc
 50
222.6325750212
 51
234.0847220206
  0
ARC
  5
2FA
330
2A6
100
AcDbEntity
  8
0
  6
Continuous
 62
     7
370
    25
100
AcDbCircle
 10
92.3632545288
 20
-18.3361963493
 30
0.0
 40
2.177558249992235
100
AcDbArc
 50
227.15449916
 51
234.1264883045
  0
ARC
  5
2FB
330
2A6
100
AcDbEntity
  8
0
  6
Continuous
 62
     7
370
    25
100
AcDbCircle
 10
68.0222011505
 20
-34.8363724039
 30
0.0
 40
0.416377885958103
100
AcDbArc
 50
185.9125461186
 51
221.5832705501
  0
ARC
  5
2FC
330
2A6
100
AcDbEntity
  8
0
  6
Continuous
 62
     7
370
    25
100
AcDbCircle
 10
47.0166822766
 20
40.0369708353
 30
0.0
 40
77.94691452270347
100
AcDbArc
 50
274.8286773022
 51
285.3960289568
  0
ARC
  5
2FD
330
2A6
100
AcDbEntity
  8
0
  6
Continuous
 62
     7
370
    25
100
AcDbCircle
 10
48.5195879069
 20
39.061365353
 30
0.0
 40
77.9469145227012
100
AcDbArc
 50
274.8286773022
 51
285.3960289568
  0
ARC
  5
2FE
330
2A6
100
AcDbEntity
  8
0
  6
Continuous
 62
     7
370
    25
100
AcDbCircle
 10
53.8427757768
 20
-37.4277422368
 30
0.0
 40
0.3352105107904436
100
AcDbArc
 50
174.1831927242
 51
217.822386189
  0
ARC
  5
2FF
330
2A6
100
AcDbEntity
  8
0
  6
Continuous
 62
     7
370
    25
100
AcDbCircle
 10
50.0287877988
 20
-37.8907311493
 30
0.0
 40
0.1837967422165759
100
AcDbArc
 50
237.8281246462
 51
260.6916731076
  0
ARC
  5
300
330
2A6
100
AcDbEntity
  8
0
  6
Continuous
 62
     7
370
    25
100
AcDbCircle
 10
49.7049631451
 20
-37.6805105123
 30
0.0
 40
0.4299591265347166
100
AcDbArc
 50
274.7012716271
 51
301.7045036039
  0
ARC
  5
301
330
2A6
100
AcDbEntity
  8
0
  6
Continuous
 62
     7
370
    25
100
AcDbCircle
 10
-72.9112773415
 20
-2.5205743048
 30
0.0
 40
2.187917394807194
100
AcDbArc
 50
235.4948682031
 51
248.6860616815
  0
ARC
  5
302
330
2A6
100
AcDbEntity
  8
0
  6
Continuous
 62
     7
370
    25
100
AcDbCircle
 10
49.779056095
 20
-37.4554399614
 30
0.0
 40
0.6547369350554435
100
AcDbArc
 50
266.5979700052
 51
289.6344253131
  0
ARC
  5
303
330
2A6
100
AcDbEntity
  8
0
  6
Continuous
 62
     7
370
    25
100
AcDbCircle
 10
51.1516492928
 20
-36.2815736741
 30
0.0
 40
2.359234545273238
100
AcDbArc
 50
249.7317982623
 51
262.5102586692
  0
ARC
  5
304
330
2A6
100
AcDbEntity
  8
0
  6
Continuous
 62
     7
370
    25
100
AcDbCircle
 10
50.8300350826
 20
-38.5934353288
 30
0.0
 40
0.0306727473045222
100
AcDbArc
 50
239.7641157578
 51
297.348512207
  0
ARC
  5
305
330
2A6
100
AcDbEntity
  8
0
  6
Continuous
 62
     7
370
    25
100
AcDbCircle
 10
-73.1263064829
 20
-4.7122181921
 30
0.0
 40
0.2327485705966989
100
AcDbArc
 50
244.9200939734
 51
273.4340573156
  0
ARC
  5
306
330
2A6
100
AcDbEntity
  8
0
  6
Continuous
 62
     7
370
    25
100
AcDbCircle
 10
51.1022374456
 20
-36.5332096215
 30
0.0
 40
2.106458067412189
100
AcDbArc
 50
248.6214725856
 51
262.1514363065
  0
ARC
  5
307
330
2A6
100
AcDbEntity
  8
0
  6
Continuous
 62
     7
370
    25
100
AcDbCircle
 10
-37.1086858275
 20
53.9931182946
 30
0.0
 40
69.10059958128805
100
AcDbArc
 50
222.6325750212
 51
234.0847220206
  0
ARC
  5
308
330
2A6
100
AcDbEntity
  8
0
  6
Continuous
 62
     7
370
    25
100
AcDbCircle
 10
-74.1646830387
 20
-4.2924912476
 30
0.0
 40
0.0340962371154794
100
AcDbArc
 50
242.8807311378
 51
294.2318968287
  0
ARC
  5
309
330
2A6
100
AcDbEntity
  8
0
  6
Continuous
 62
     7
370
    25
100
AcDbCircle
 10
-57.4211549896
 20
34.8436292782
 30
0.0
 40
41.18795851736612
100
AcDbArc
 50
184.7738190736
 51
222.1721353437
  0
ARC
  5
30A
330
2A6
100
AcDbEntity
  8
0
  6
Continuous
 62
     7
370
    25
100
AcDbCircle
 10
-72.8727557335
 20
-2.2919789867
 30
0.0
 40
2.41534047110056
100
AcDbArc
 50
237.226520509
 51
249.8058525673
  0
ARC
  5
30B
330
2A6
100
AcDbEntity
  8
0
  6
Continuous
 62
     7
370
    25
100
AcDbCircle
 10
-73.0799644356
 20
-4.4699423134
 30
0.0
 40
0.4757111988643784
100
AcDbArc
 50
237.5578580173
 51
266.0945873516
  0
VIEWPORT
  5
38B
330
2A6
100
AcDbEntity
  8
0
100
AcDbViewport
 10
0.0
 20
0.0
 30
0.0
 40
205.6
 41
156.0
 68
     1
 69
     1
 12
-13.0911322451
 22
0.9264697138
 13
0.0
 23
0.0
 14
10.0
 24
10.0
 15
10.0
 25
10.0
 16
0.0
 26
0.0
 36
1.0
 17
0.0
 27
0.0
 37
0.0
 42
50.0
 43
0.0
 44
0.0
 45
27.8940017838
 50
0.0
 51
0.0
 72
   100
 90
   557152
  1

281
     0
 71
     1
 74
     0
110
0.0
120
0.0
130
0.0
111
1.0
121
0.0
131
0.0
112
0.0
122
1.0
132
0.0
 79
     0
146
0.0
  0
ENDBLK
  5
2A9
330
2A6
100
AcDbEntity
  8
0
100
AcDbBlockEnd
  0
BLOCK
  5
30E
330
30C
100
AcDbEntity
  8
0
100
AcDbBlockBegin
  2
*Paper_Space6
 70
     0
 10
0.0
 20
0.0
 30
0.0
  3
*Paper_Space6
  1

  0
SPLINE
  5
31A
330
30C
100
AcDbEntity
  8
0
  6
Continuous
 62
     7
370
    25
100
AcDbSpline
210
0.0
220
0.0
230
1.0
 70
     8
 71
     3
 72
    18
 73
    14
 74
     0
 42
0.000000001
 43
0.00000001
 40
0.0
 40
0.0
 40
0.0
 40
0.0
 40
0.1249999999999999
 40
0.1249999999999999
 40
0.2499999999999999
 40
0.2499999999999999
 40
0.5000000000000007
 40
0.5000000000000007
 40
0.6250000000000006
 40
0.6250000000000006
 40
0.7500000000000006
 40
0.7500000000000006
 40
1.0
 40
1.0
 40
1.0
 40
1.0
 10
102.8539378913887
 20
0.5833714737503558
 30
0.0
 10
102.655182962078
 20
0.4699609656464042
 30
0.0
 10
102.4518052320095
 20
0.3377547537439505
 30
0.0
 10
102.0344978028831
 20
0.0371210398289021
 30
0.0
 10
101.8201102090433
 20
-0.1318321250580669
 30
0.0
 10
101.1716683023286
 20
-0.6809791248078207
 30
0.0
 10
100.7284260531412
 20
-1.105582302448261
 30
0.0
 10
100.0406845744049
 20
-1.822151453466765
 30
0.0
 10
99.8061837218675
 20
-2.07603494962439
 30
0.0
 10
99.33631240481334
 20
-2.601541807377917
 30
0.0
 10
99.10134372130297
 20
-2.8725772646338
 30
0.0
 10
98.39518981564574
 20
-3.708367187065801
 30
0.0
 10
97.9226781215569
 20
-4.295549317676817
 30
0.0
 10
97.4465647025684
 20
-4.910549092504978
 30
0.0
  0
SPLINE
  5
31C
330
30C
100
AcDbEntity
  8
0
  6
Continuous
 62
     7
370
    25
100
AcDbSpline
210
0.0
220
0.0
230
1.0
 70
     8
 71
     3
 72
    13
 73
     9
 74
     0
 42
0.000000001
 43
0.00000001
 40
0.0
 40
0.0
 40
0.0
 40
0.0
 40
0.228027653804926
 40
0.455804816177685
 40
0.6263067666151491
 40
0.7966788462777922
 40
0.9680038523776722
 40
1.0
 40
1.0
 40
1.0
 40
1.0
 10
91.92087529263976
 20
-13.67432454998308
 30
0.0
 10
92.32242739789109
 20
-13.33082925789534
 30
0.0
 10
93.12509049802729
 20
-12.64421600789939
 30
0.0
 10
94.24284931237044
 20
-11.81553442634538
 30
0.0
 10
95.23347904315997
 20
-11.17662649152459
 30
0.0
 10
96.08222104439498
 20
-10.73764064240064
 30
0.0
 10
96.67979831033941
 20
-10.48511344248641
 30
0.0
 10
96.95650592812713
 20
-10.44510228802927
 30
0.0
 10
97.0000507222859
 20
-10.4388058315066
 30
0.0
  0
SPLINE
  5
320
330
30C
100
AcDbEntity
  8
0
  6
Continuous
 62
     7
370
    25
100
AcDbSpline
210
0.0
220
0.0
230
1.0
 70
     8
 71
     3
 72
    16
 73
    12
 74
     0
 42
0.000000001
 43
0.00000001
 40
0.0
 40
0.0
 40
0.0
 40
0.0
 40
0.2500000000000022
 40
0.2500000000000022
 40
0.5000000000000044
 40
0.5000000000000044
 40
0.7500000000000067
 40
0.7500000000000067
 40
0.8750000000000033
 40
0.8750000000000033
 40
1.0
 40
1.0
 40
1.0
 40
1.0
 10
60.27809987122338
 20
-25.64478156131657
 30
0.0
 10
59.929537085546
 20
-25.71161029322552
 30
0.0
 10
59.58654050936668
 20
-25.78207983160973
 30
0.0
 10
58.91128531759403
 20
-25.93000936765359
 30
0.0
 10
58.57896719411936
 20
-26.00740737389453
 30
0.0
 10
57.92763064546488
 20
-26.17190903821477
 30
0.0
 10
57.60701713811116
 20
-26.25898935949641
 30
0.0
 10
57.15573514963403
 20
-26.40191837206756
 30
0.0
 10
57.00987734222425
 20
-26.45166904974299
 30
0.0
 10
56.735764031415
 20
-26.56030547210487
 30
0.0
 10
56.60438353893639
 20
-26.61894297961284
 30
0.0
 10
56.51034234157135
 20
-26.68701867692042
 30
0.0
  0
SPLINE
  5
323
330
30C
100
AcDbEntity
  8
0
  6
Continuous
 62
     7
370
    25
100
AcDbSpline
210
0.0
220
0.0
230
1.0
 70
     8
 71
     3
 72
    16
 73
    12
 74
     0
 42
0.000000001
 43
0.00000001
 40
0.0
 40
0.0
 40
0.0
 40
0.0
 40
0.1250000000000004
 40
0.1250000000000004
 40
0.2500000000000007
 40
0.2500000000000007
 40
0.5000000000000004
 40
0.5000000000000004
 40
0.7500000000000002
 40
0.7500000000000002
 40
1.0
 40
1.0
 40
1.0
 40
1.0
 10
57.15053788511128
 20
-27.63302081867043
 30
0.0
 10
57.31184458911221
 20
-27.66434180412142
 30
0.0
 10
57.49181685958123
 20
-27.67750724262905
 30
0.0
 10
57.84921631206187
 20
-27.69194082472848
 30
0.0
 10
58.02893774808125
 20
-27.69222964750807
 30
0.0
 10
58.5696586375498
 20
-27.6814624294819
 30
0.0
 10
58.93365701673275
 20
-27.65849092945705
 30
0.0
 10
59.65276280299056
 20
-27.59413029948901
 30
0.0
 10
60.00916619600108
 20
-27.5523225387528
 30
0.0
 10
60.7168428114505
 20
-27.45230139030463
 30
0.0
 10
61.0680899699916
 20
-27.39402354657327
 30
0.0
 10
61.41665275566899
 20
-27.32719481466432
 30
0.0
  0
SPLINE
  5
326
330
30C
100
AcDbEntity
  8
0
  6
Continuous
 62
     7
370
    25
100
AcDbSpline
210
0.0
220
0.0
230
1.0
 70
     8
 71
     3
 72
    18
 73
    14
 74
     0
 42
0.000000001
 43
0.00000001
 40
0.0
 40
0.0
 40
0.0
 40
0.0
 40
0.2500000000000004
 40
0.2500000000000004
 40
0.3750000000000005
 40
0.3750000000000005
 40
0.5000000000000006
 40
0.5000000000000006
 40
0.7500000000000008
 40
0.7500000000000008
 40
0.8750000000000004
 40
0.8750000000000004
 40
1.0
 40
1.0
 40
1.0
 40
1.0
 10
97.2432315469048
 20
-4.734594569095751
 30
0.0
 10
97.71993911436903
 20
-4.110534007221138
 30
0.0
 10
98.19324167812069
 20
-3.515161334699255
 30
0.0
 10
98.90089462814996
 20
-2.668254065564462
 30
0.0
 10
99.13641525175846
 20
-2.393708561849092
 30
0.0
 10
99.60749825113304
 20
-1.861557798172156
 30
0.0
 10
99.84271924023813
 20
-1.604482658718984
 30
0.0
 10
100.5326507011469
 20
-0.8791737725377009
 30
0.0
 10
100.9774629678578
 20
-0.4497090054552599
 30
0.0
 10
101.6284421100797
 20
0.1057403115895051
 30
0.0
 10
101.8437235683936
 20
0.2766546120480631
 30
0.0
 10
102.2631191136922
 20
0.5810842706096301
 30
0.0
 10
102.4675864523812
 20
0.7150480440591281
 30
0.0
 10
102.667475868633
 20
0.8301258766846075
 30
0.0
  0
SPLINE
  5
327
330
30C
100
AcDbEntity
  8
0
  6
Continuous
 62
     7
370
    25
100
AcDbSpline
210
0.0
220
0.0
230
1.0
 70
     8
 71
     3
 72
    10
 73
     6
 74
     0
 42
0.000000001
 43
0.00000001
 40
0.0
 40
0.0
 40
0.0
 40
0.0
 40
0.5
 40
0.5
 40
1.0
 40
1.0
 40
1.0
 40
1.0
 10
102.667475868633
 20
0.8301258766846057
 30
0.0
 10
102.7230728296886
 20
0.8231213179926747
 30
0.0
 10
102.7773926380728
 20
0.7909008308073627
 30
0.0
 10
102.8483542014461
 20
0.6977496792014704
 30
0.0
 10
102.8642972185539
 20
0.6371442784587276
 30
0.0
 10
102.8539378913887
 20
0.5833714737503576
 30
0.0
  0
SPLINE
  5
328
330
30C
100
AcDbEntity
  8
0
  6
Continuous
 62
     7
370
    25
100
AcDbSpline
210
0.0
220
0.0
230
1.0
 70
     8
 71
     3
 72
    18
 73
    14
 74
     0
 42
0.000000001
 43
0.00000001
 40
0.0
 40
0.0
 40
0.0
 40
0.0
 40
0.1249999999999993
 40
0.1249999999999993
 40
0.2499999999999987
 40
0.2499999999999987
 40
0.4999999999999982
 40
0.4999999999999982
 40
0.6249999999999986
 40
0.6249999999999986
 40
0.7499999999999989
 40
0.7499999999999989
 40
1.0
 40
1.0
 40
1.0
 40
1.0
 10
-102.667475868633
 20
26.69989813833043
 30
0.0
 10
-102.7459093013381
 20
26.56951829010758
 30
0.0
 10
-102.8178000063304
 20
26.41885143083693
 30
0.0
 10
-102.9470540662773
 20
26.07786738109063
 30
0.0
 10
-103.0043955698348
 20
25.88705451671981
 30
0.0
 10
-103.1494832414375
 20
25.26786886534278
 30
0.0
 10
-103.2118703563998
 20
24.79022305796907
 30
0.0
 10
-103.2479025474293
 20
23.9825306075153
 30
0.0
 10
-103.2501945102745
 20
23.69610916919051
 30
0.0
 10
-103.2342871932418
 20
23.10260339277711
 30
0.0
 10
-103.2162538651347
 20
22.79611309383118
 30
0.0
 10
-103.1322621996046
 20
21.84946797810278
 30
0.0
 10
-103.0365710756463
 20
21.18240883917645
 30
0.0
 10
-102.9000857950995
 20
20.48109324012329
 30
0.0
  0
SPLINE
  5
32A
330
30C
100
AcDbEntity
  8
0
  6
Continuous
 62
     7
370
    25
100
AcDbSpline
210
0.0
220
0.0
230
1.0
 70
     8
 71
     3
 72
    13
 73
     9
 74
     0
 42
0.000000001
 43
0.00000001
 40
0.0
 40
0.0
 40
0.0
 40
0.0
 40
0.1363666608562213
 40
0.3309303909950319
 40
0.5325245739245628
 40
0.7548377324672995
 40
0.9859466746170227
 40
1.0
 40
1.0
 40
1.0
 40
1.0
 10
98.53121758475714
 20
-10.97779535847049
 30
0.0
 10
98.46876303481126
 20
-10.88761253636348
 30
0.0
 10
98.31720026643936
 20
-10.66875965550886
 30
0.0
 10
97.94062303397337
 20
-10.48126210839766
 30
0.0
 10
97.41085553824476
 20
-10.40521291348872
 30
0.0
 10
96.73694248903993
 20
-10.52151570001422
 30
0.0
 10
96.2118473050712
 20
-10.68607905525518
 30
0.0
 10
95.90967538339119
 20
-10.84112663265753
 30
0.0
 10
95.89235411948015
 20
-10.85001435456109
 30
0.0
  0
SPLINE
  5
32B
330
30C
100
AcDbEntity
  8
0
  6
Continuous
 62
     7
370
    25
100
AcDbSpline
210
0.0
220
0.0
230
1.0
 70
     8
 71
     3
 72
    12
 73
     8
 74
     0
 42
0.000000001
 43
0.00000001
 40
0.0
 40
0.0
 40
0.0
 40
0.0
 40
0.4999999999999674
 40
0.4999999999999674
 40
0.7499999999999837
 40
0.7499999999999837
 40
1.0
 40
1.0
 40
1.0
 40
1.0
 10
99.00421175732001
 20
-12.21705653840492
 30
0.0
 10
98.98201304707256
 20
-12.26950264276508
 30
0.0
 10
98.95508592329405
 20
-12.31869023577903
 30
0.0
 10
98.90230461062163
 20
-12.38393282081174
 30
0.0
 10
98.88257973223926
 20
-12.40425059514995
 30
0.0
 10
98.836806295514
 20
-12.43615914374026
 30
0.0
 10
98.80996133323842
 20
-12.44888498156841
 30
0.0
 10
98.77980978361133
 20
-12.44508624337785
 30
0.0
  0
SPLINE
  5
32D
330
30C
100
AcDbEntity
  8
0
  6
Continuous
 62
     7
370
    25
100
AcDbSpline
210
0.0
220
0.0
230
1.0
 70
     8
 71
     3
 72
    16
 73
    12
 74
     0
 42
0.000000001
 43
0.00000001
 40
0.0
 40
0.0
 40
0.0
 40
0.0
 40
0.1249999999999999
 40
0.1249999999999999
 40
0.2499999999999998
 40
0.2499999999999998
 40
0.4999999999999999
 40
0.4999999999999999
 40
0.7499999999999999
 40
0.7499999999999999
 40
1.0
 40
1.0
 40
1.0
 40
1.0
 10
56.44406929772315
 20
-26.65890633121485
 30
0.0
 10
56.5293132649166
 20
-26.58226876367109
 30
0.0
 10
56.65368621353826
 20
-26.51275658781158
 30
0.0
 10
56.91888262332623
 20
-26.38310587948665
 30
0.0
 10
57.06195366616458
 20
-26.32298681428573
 30
0.0
 10
57.50794755920968
 20
-26.14929185054228
 30
0.0
 10
57.82954356513177
 20
-26.04191241153116
 30
0.0
 10
58.48513485428423
 20
-25.83855376923064
 30
0.0
 10
58.82090411679863
 20
-25.74246831903663
 30
0.0
 10
59.50512881918137
 20
-25.55820556862913
 30
0.0
 10
59.85365605174785
 20
-25.47009939857851
 30
0.0
 10
60.20885909017583
 20
-25.38619917017226
 30
0.0
  0
SPLINE
  5
32F
330
30C
100
AcDbEntity
  8
0
  6
Continuous
 62
     7
370
    25
100
AcDbSpline
210
0.0
220
0.0
230
1.0
 70
     8
 71
     3
 72
    16
 73
    12
 74
     0
 42
0.000000001
 43
0.00000001
 40
0.0
 40
0.0
 40
0.0
 40
0.0
 40
0.1250000000000001
 40
0.1250000000000001
 40
0.2500000000000001
 40
0.2500000000000001
 40
0.5000000000000001
 40
0.5000000000000001
 40
0.7500000000000001
 40
0.7500000000000001
 40
1.0
 40
1.0
 40
1.0
 40
1.0
 10
-74.7921834446025
 20
-10.12469263699755
 30
0.0
 10
-74.93233091409137
 20
-10.01965841760586
 30
0.0
 10
-75.08920316934841
 20
-9.914712676673913
 30
0.0
 10
-75.40131203033442
 20
-9.712328340907503
 30
0.0
 10
-75.55802170819696
 20
-9.614440455019459
 30
0.0
 10
-76.02866948469203
 20
-9.32525949614508
 30
0.0
 10
-76.34476037552103
 20
-9.137539059882332
 30
0.0
 10
-76.96422183997862
 20
-8.77353887030308
 30
0.0
 10
-77.26888548914921
 20
-8.59676645749518
 30
0.0
 10
-77.86940392413244
 20
-8.25064128621305
 30
0.0
 10
-78.16522872685312
 20
-8.081354390386439
 30
0.0
 10
-78.45645155900301
 20
-7.916012157516755
 30
0.0
  0
SPLINE
  5
336
330
30C
100
AcDbEntity
  8
0
  6
Continuous
 62
     7
370
    25
100
AcDbSpline
210
0.0
220
0.0
230
1.0
 70
     8
 71
     3
 72
     9
 73
     5
 74
     0
 42
0.000000001
 43
0.00000001
 40
0.0
 40
0.0
 40
0.0
 40
0.0
 40
0.5530589856944886
 40
1.0
 40
1.0
 40
1.0
 40
1.0
 10
57.27436940426558
 20
-27.67007376212528
 30
0.0
 10
57.24319823552972
 20
-27.66748813596551
 30
0.0
 10
57.18683685357562
 20
-27.66281299962989
 30
0.0
 10
57.13615719524602
 20
-27.65265710160875
 30
0.0
 10
57.11350637734753
 20
-27.64811801424599
 30
0.0
  0
SPLINE
  5
33B
330
30C
100
AcDbEntity
  8
0
  6
Continuous
 62
     7
370
    25
100
AcDbSpline
210
0.0
220
0.0
230
1.0
 70
     8
 71
     3
 72
     9
 73
     5
 74
     0
 42
0.000000001
 43
0.00000001
 40
0.0
 40
0.0
 40
0.0
 40
0.0
 40
0.5530589856947254
 40
0.9999999999999999
 40
0.9999999999999999
 40
0.9999999999999999
 40
0.9999999999999999
 10
-74.20156641264163
 20
-11.1056628389319
 30
0.0
 10
-74.18449724403285
 20
-11.10915492399652
 30
0.0
 10
-74.15363404670623
 20
-11.11546905170249
 30
0.0
 10
-74.1322871628853
 20
-11.11438764502568
 30
0.0
 10
-74.12274636497814
 20
-11.11390432002867
 30
0.0
  0
SPLINE
  5
33D
330
30C
100
AcDbEntity
  8
0
  6
Continuous
 62
     7
370
    25
100
AcDbSpline
210
0.0
220
0.0
230
1.0
 70
     8
 71
     3
 72
    16
 73
    12
 74
     0
 42
0.000000001
 43
0.00000001
 40
0.0
 40
0.0
 40
0.0
 40
0.0
 40
0.2500000000000024
 40
0.2500000000000024
 40
0.5000000000000049
 40
0.5000000000000049
 40
0.7500000000000073
 40
0.7500000000000073
 40
0.8750000000000037
 40
0.8750000000000037
 40
1.0
 40
1.0
 40
1.0
 40
1.0
 10
-77.36988810758814
 20
-9.841734230690825
 30
0.0
 10
-77.0763995897409
 20
-9.989453823419849
 30
0.0
 10
-76.78716607427353
 20
-10.12842464725226
 30
0.0
 10
-76.2168897563162
 20
-10.38945273128846
 30
0.0
 10
-75.93578910651189
 20
-10.51157845184575
 30
0.0
 10
-75.38429370471741
 20
-10.73601978454942
 30
0.0
 10
-75.1124927339719
 20
-10.83909447327932
 30
0.0
 10
-74.73050565281629
 20
-10.96611196853347
 30
0.0
 10
-74.6071465620971
 20
-11.00400770292415
 30
0.0
 10
-74.37624135044307
 20
-11.0636935415705
 30
0.0
 10
-74.26592180244991
 20
-11.08710143444072
 30
0.0
 10
-74.18901940882674
 20
-11.08579197432484
 30
0.0
  0
SPLINE
  5
341
330
30C
100
AcDbEntity
  8
0
  6
Continuous
 62
     7
370
    25
100
AcDbSpline
210
0.0
220
0.0
230
1.0
 70
     8
 71
     3
 72
    16
 73
    12
 74
     0
 42
0.000000001
 43
0.00000001
 40
0.0
 40
0.0
 40
0.0
 40
0.0
 40
0.1250000000000002
 40
0.1250000000000002
 40
0.2500000000000005
 40
0.2500000000000005
 40
0.5000000000000003
 40
0.5000000000000003
 40
0.7500000000000001
 40
0.7500000000000001
 40
1.0
 40
1.0
 40
1.0
 40
1.0
 10
-74.82921495236636
 20
-10.13978983257353
 30
0.0
 10
-74.9733828526256
 20
-10.04170260993133
 30
0.0
 10
-75.1322941786093
 20
-9.946491771046377
 30
0.0
 10
-75.44648553193474
 20
-9.763735927938717
 30
0.0
 10
-75.60370825126355
 20
-9.675800693093015
 30
0.0
 10
-76.07513423341052
 20
-9.41662140329388
 30
0.0
 10
-76.39032007598529
 20
-9.249437893307201
 30
0.0
 10
-77.0095847153831
 20
-8.92485552625132
 30
0.0
 10
-77.31477063472326
 20
-8.767139560189257
 30
0.0
 10
-77.91746837635735
 20
-8.458203088557351
 30
0.0
 10
-78.21495247418649
 20
-8.307040570072107
 30
0.0
 10
-78.50844099203377
 20
-8.15932097734308
 30
0.0
  0
SPLINE
  5
348
330
30C
100
AcDbEntity
  8
0
  6
Continuous
 62
     7
370
    25
100
AcDbSpline
210
0.0
220
0.0
230
1.0
 70
     8
 71
     3
 72
    18
 73
    14
 74
     0
 42
0.000000001
 43
0.00000001
 40
0.0
 40
0.0
 40
0.0
 40
0.0
 40
0.2499999999999999
 40
0.2499999999999999
 40
0.3749999999999998
 40
0.3749999999999998
 40
0.4999999999999996
 40
0.4999999999999996
 40
0.7499999999999993
 40
0.7499999999999993
 40
0.8749999999999997
 40
0.8749999999999997
 40
1.0
 40
1.0
 40
1.0
 40
1.0
 10
-103.0366739884647
 20
20.34796478120941
 30
0.0
 10
-103.1771084008668
 20
21.04064228139091
 30
0.0
 10
-103.2769941289069
 20
21.69993970863478
 30
0.0
 10
-103.3674744397957
 20
22.6360961082959
 30
0.0
 10
-103.3877040554207
 20
22.93928352908423
 30
0.0
 10
-103.4080467554214
 20
23.52655154767949
 30
0.0
 10
-103.4079906990368
 20
23.8099723117649
 30
0.0
 10
-103.3785419089852
 20
24.60947854579676
 30
0.0
 10
-103.320423185393
 20
25.08260272687795
 30
0.0
 10
-103.1814017726478
 20
25.69593067611003
 30
0.0
 10
-103.1260349045998
 20
25.88491856926079
 30
0.0
 10
-103.0006320930515
 20
26.22232880814141
 30
0.0
 10
-102.9305934629373
 20
26.37133416758403
 30
0.0
 10
-102.8539378913887
 20
26.50012774881742
 30
0.0
  0
LWPOLYLINE
  5
34C
330
30C
100
AcDbEntity
  8
0
  6
Continuous
 62
     7
370
    25
100
AcDbPolyline
 90
        9
 70
   128
 43
0.0
 10
-102.9000857951
 20
20.4810932401
 10
-102.936046489
 20
20.468883745
 10
-102.9685901662
 20
20.454136282
 10
-102.9964661915
 20
20.4374175877
 10
-103.0186033048
 20
20.4193701523
 10
-103.0341507892
 20
20.4006875285
 10
-103.0425111638
 20
20.3820876792
 10
-103.0433631439
 20
20.364285386
 10
-103.0366739885
 20
20.3479647812
  0
SPLINE
  5
34D
330
30C
100
AcDbEntity
  8
0
  6
Continuous
 62
     7
370
    25
100
AcDbSpline
210
0.0
220
0.0
230
1.0
 70
     8
 71
     3
 72
    10
 73
     6
 74
     0
 42
0.000000001
 43
0.00000001
 40
0.0
 40
0.0
 40
0.0
 40
0.0
 40
0.5
 40
0.5
 40
1.0
 40
1.0
 40
1.0
 40
1.0
 10
-102.8539378913887
 20
26.50012774881741
 30
0.0
 10
-102.8642928571299
 20
26.55648712052246
 30
0.0
 10
-102.8484802647224
 20
26.6128817922498
 30
0.0
 10
-102.7775035836809
 20
26.68833504061539
 30
0.0
 10
-102.7230507843223
 20
26.70689991957142
 30
0.0
 10
-102.6674758686334
 20
26.69989813833472
 30
0.0
  0
LWPOLYLINE
  5
34E
330
30C
100
AcDbEntity
  8
0
  6
Continuous
 62
     8
370
    25
100
AcDbPolyline
 90
        3
 70
   128
 43
0.0
 10
60.2088590902
 20
-25.3861991702
 10
62.023343078
 20
-25.0185423224
 10
63.2101749233
 20
-24.756589691
  0
SPLINE
  5
350
330
30C
100
AcDbEntity
  8
0
  6
Continuous
 62
     8
370
    25
100
AcDbSpline
210
0.0
220
0.0
230
1.0
 70
     8
 71
     3
 72
    13
 73
     9
 74
     0
 42
0.000000001
 43
0.00000001
 40
0.0
 40
0.0
 40
0.0
 40
0.0
 40
0.1563749611099374
 40
0.3247177517311287
 40
0.4930058952578983
 40
0.6461038599209892
 40
0.7992079669501004
 40
1.0
 40
1.0
 40
1.0
 40
1.0
 10
97.0000507222859
 20
-10.4388058315066
 30
0.0
 10
97.19709606740822
 20
-10.39719993451019
 30
0.0
 10
97.60626720966182
 20
-10.3108039204966
 30
0.0
 10
98.111987510846
 20
-10.39014481931449
 30
0.0
 10
98.5230968561715
 20
-10.60543723343882
 30
0.0
 10
98.80519660073861
 20
-10.96685367453968
 30
0.0
 10
98.99964414576455
 20
-11.47602576894018
 30
0.0
 10
99.0025583238148
 20
-11.94881019395153
 30
0.0
 10
99.00421175732001
 20
-12.21705653840491
 30
0.0
  0
SPLINE
  5
351
330
30C
100
AcDbEntity
  8
0
  6
Continuous
 62
     8
370
    25
100
AcDbSpline
210
0.0
220
0.0
230
1.0
 70
     8
 71
     3
 72
    10
 73
     6
 74
     0
 42
0.000000001
 43
0.00000001
 40
0.0
 40
0.0
 40
0.0
 40
0.0
 40
0.5662663948540589
 40
0.9099297916615464
 40
1.0
 40
1.0
 40
1.0
 40
1.0
 10
98.77980978361258
 20
-12.445086243381
 30
0.0
 10
98.79087388258543
 20
-12.11784621065692
 30
0.0
 10
98.80865271135723
 20
-11.59200632768687
 30
0.0
 10
98.66873759543869
 20
-11.13993880826131
 30
0.0
 10
98.55486471311687
 20
-11.0056765879068
 30
0.0
 10
98.53121758475714
 20
-10.97779535847049
 30
0.0
  0
LINE
  5
352
330
30C
100
AcDbEntity
  8
0
  6
Continuous
 62
     7
370
    25
100
AcDbLine
 10
-74.201968973
 20
-11.1091637823
 30
0.0
 11
57.273966844
 21
-27.6735747055
 31
0.0
  0
LINE
  5
353
330
30C
100
AcDbEntity
  8
0
  6
Continuous
 62
     7
370
    25
100
AcDbLine
 10
-97.5591013501
 20
7.2392864995
 30
0.0
 11
-96.4205484656
 21
5.5568732461
 31
0.0
  0
LINE
  5
354
330
30C
100
AcDbEntity
  8
0
  6
Continuous
 62
     7
370
    25
100
AcDbLine
 10
-102.9000857951
 20
20.4810932401
 30
0.0
 11
97.2432315469
 21
-4.7345945691
 31
0.0
  0
LINE
  5
355
330
30C
100
AcDbEntity
  8
0
  6
Continuous
 62
     7
370
    25
100
AcDbLine
 10
-78.456451559
 20
-7.9160121575
 30
0.0
 11
60.2088590902
 21
-25.3861991702
 31
0.0
  0
LINE
  5
356
330
30C
100
AcDbEntity
  8
0
  6
Continuous
 62
     7
370
    25
100
AcDbLine
 10
75.7899136351
 20
-23.30644945
 30
0.0
 11
74.6513607507
 21
-21.6240361967
 31
0.0
  0
LINE
  5
357
330
30C
100
AcDbEntity
  8
0
  6
Continuous
 62
     7
370
    25
100
AcDbLine
 10
56.5103423416
 20
-26.6870186769
 30
0.0
 11
57.1505378851
 21
-27.6330208187
 31
0.0
  0
LINE
  5
358
330
30C
100
AcDbEntity
  8
0
  6
Continuous
 62
     7
370
    25
100
AcDbLine
 10
-102.6674758686
 20
26.6998981383
 30
0.0
 11
102.6674758686
 21
0.8301258767
 31
0.0
  0
LINE
  5
359
330
30C
100
AcDbEntity
  8
0
  6
Continuous
 62
     7
370
    25
100
AcDbLine
 10
94.2184954423
 20
-11.8704146533
 30
0.0
 11
98.7798097836
 21
-12.4450862434
 31
0.0
  0
LINE
  5
35A
330
30C
100
AcDbEntity
  8
0
  6
Continuous
 62
     7
370
    25
100
AcDbLine
 10
56.2043253235
 20
-26.831856792
 30
0.0
 11
-74.3604478333
 21
-10.3822415736
 31
0.0
  0
LINE
  5
35B
330
30C
100
AcDbEntity
  8
0
  6
Continuous
 62
     7
370
    25
100
AcDbLine
 10
56.6544508825
 20
-27.4969969154
 30
0.0
 11
56.2043253235
 21
-26.831856792
 31
0.0
  0
LINE
  5
35C
330
30C
100
AcDbEntity
  8
0
  6
Continuous
 62
     7
370
    25
100
AcDbLine
 10
-73.9103222743
 20
-11.047381697
 30
0.0
 11
56.6544508825
 21
-27.4969969154
 31
0.0
  0
LINE
  5
35D
330
30C
100
AcDbEntity
  8
0
  6
Continuous
 62
     7
370
    25
100
AcDbLine
 10
-74.3604478333
 20
-10.3822415736
 30
0.0
 11
-73.9103222743
 21
-11.047381697
 31
0.0
  0
LINE
  5
35E
330
30C
100
AcDbEntity
  8
0
  6
Continuous
 62
     7
370
    25
100
AcDbLine
 10
-88.8430113883
 20
-2.5646505449
 30
0.0
 11
-89.9815642728
 21
-0.8822372916
 31
0.0
  0
LINE
  5
35F
330
30C
100
AcDbEntity
  8
0
  6
Continuous
 62
     7
370
    25
100
AcDbLine
 10
-74.1890194088
 20
-11.0857919743
 30
0.0
 11
-74.8292149524
 21
-10.1397898326
 31
0.0
  0
ARC
  5
360
330
30C
100
AcDbEntity
  8
0
  6
Continuous
 62
     7
370
    25
100
AcDbCircle
 10
-67.8266620215
 20
27.4835841176
 30
0.0
 40
35.76562502864789
100
AcDbArc
 50
191.2907774823
 51
231.8865180586
  0
ARC
  5
361
330
30C
100
AcDbEntity
  8
0
  6
Continuous
 62
     7
370
    25
100
AcDbCircle
 10
56.6730339026
 20
26.8009286678
 30
0.0
 40
51.38511615945195
100
AcDbArc
 50
290.3560764688
 51
322.1418051275
  0
ARC
  5
362
330
30C
100
AcDbEntity
  8
0
  6
Continuous
 62
     7
370
    25
100
AcDbCircle
 10
43.2208146167
 20
62.8979847223
 30
0.0
 40
89.90494391876412
100
AcDbArc
 50
282.8464411456
 51
287.2531044158
  0
ARC
  5
363
330
30C
100
AcDbEntity
  8
0
  6
Continuous
 62
     7
370
    25
100
AcDbCircle
 10
-47.9314304656
 20
52.8623765207
 30
0.0
 40
68.01315639688201
100
AcDbArc
 50
231.895750061
 51
243.3326053266
  0
ARC
  5
364
330
30C
100
AcDbEntity
  8
0
  6
Continuous
 62
     7
370
    25
100
AcDbCircle
 10
56.6985136519
 20
26.76322095
 30
0.0
 40
51.6103804784727
100
AcDbArc
 50
290.3560764688
 51
322.1418051275
  0
ARC
  5
365
330
30C
100
AcDbEntity
  8
0
  6
Continuous
 62
     7
370
    25
100
AcDbCircle
 10
40.1223044561
 20
12.4707813497
 30
0.0
 40
63.84800973418809
100
AcDbArc
 50
337.2528096058
 51
349.2698920759
  0
ARC
  5
366
330
30C
100
AcDbEntity
  8
0
  6
Continuous
 62
     7
370
    25
100
AcDbCircle
 10
57.7519020659
 20
25.2252457777
 30
0.0
 40
51.77543146174536
100
AcDbArc
 50
290.3888353057
 51
311.2957315023
  0
ARC
  5
367
330
30C
100
AcDbEntity
  8
0
  6
Continuous
 62
     7
370
    25
100
AcDbCircle
 10
96.7911844857
 20
-5.4624436533
 30
0.0
 40
0.856802681453287
100
AcDbArc
 50
40.1006738252
 51
58.156720614
  0
ARC
  5
368
330
30C
100
AcDbEntity
  8
0
  6
Continuous
 62
     7
370
    25
100
AcDbCircle
 10
75.6300265255
 20
-21.0696408433
 30
0.0
 40
1.124784826756265
100
AcDbArc
 50
195.7594853931
 51
209.5307199087
  0
ARC
  5
369
330
30C
100
AcDbEntity
  8
0
  6
Continuous
 62
     7
370
    25
100
AcDbCircle
 10
43.2215533856
 20
63.0294991513
 30
0.0
 40
90.29979976679422
100
AcDbArc
 50
280.8878949148
 51
290.3687418437
  0
ARC
  5
36A
330
30C
100
AcDbEntity
  8
0
  6
Continuous
 62
     7
370
    25
100
AcDbCircle
 10
44.36010627
 20
61.347085898
 30
0.0
 40
90.29979976679168
100
AcDbArc
 50
280.8878949148
 51
290.3687418437
  0
ARC
  5
36B
330
30C
100
AcDbEntity
  8
0
  6
Continuous
 62
     7
370
    25
100
AcDbCircle
 10
60.8833876577
 20
-25.3441417222
 30
0.0
 40
0.6758384550864327
100
AcDbArc
 50
183.567823445
 51
206.4130892904
  0
ARC
  5
36C
330
30C
100
AcDbEntity
  8
0
  6
Continuous
 62
     7
370
    25
100
AcDbCircle
 10
56.5547018375
 20
-26.4902706347
 30
0.0
 40
0.2016867794731662
100
AcDbArc
 50
236.7333383233
 51
257.2943438115
  0
ARC
  5
36D
330
30C
100
AcDbEntity
  8
0
  6
Continuous
 62
     7
370
    25
100
AcDbCircle
 10
55.6130481883
 20
-25.7595864612
 30
0.0
 40
1.224488592379701
100
AcDbArc
 50
298.8734596415
 51
312.7396360433
  0
ARC
  5
36E
330
30C
100
AcDbEntity
  8
0
  6
Continuous
 62
     7
370
    25
100
AcDbCircle
 10
-73.3695360251
 20
-8.2305127836
 30
0.0
 40
2.368932881541675
100
AcDbArc
 50
233.0911617979
 51
245.2730354424
  0
ARC
  5
36F
330
30C
100
AcDbEntity
  8
0
  6
Continuous
 62
     7
370
    25
100
AcDbCircle
 10
55.788834021
 20
-25.5582993666
 30
0.0
 40
1.339619923056037
100
AcDbArc
 50
288.0686385792
 51
302.5878286891
  0
ARC
  5
370
330
30C
100
AcDbEntity
  8
0
  6
Continuous
 62
     7
370
    25
100
AcDbCircle
 10
57.5280346456
 20
-25.2836275364
 30
0.0
 40
2.379527810105006
100
AcDbArc
 50
248.4615924636
 51
260.8718276939
  0
ARC
  5
371
330
30C
100
AcDbEntity
  8
0
  6
Continuous
 62
     7
370
    25
100
AcDbCircle
 10
57.1102124789
 20
-27.5870731028
 30
0.0
 40
0.0611337139587746
100
AcDbArc
 50
273.0886053201
 51
311.271379382
  0
ARC
  5
372
330
30C
100
AcDbEntity
  8
0
  6
Continuous
 62
     7
370
    25
100
AcDbCircle
 10
-74.1703040799
 20
-10.5896160463
 30
0.0
 40
0.5264408135696879
100
AcDbArc
 50
275.1830637202
 51
299.5938226559
  0
ARC
  5
373
330
30C
100
AcDbEntity
  8
0
  6
Continuous
 62
     7
370
    25
100
AcDbCircle
 10
57.5380285655
 20
-25.5857719061
 30
0.0
 40
2.105585561763228
100
AcDbArc
 50
245.1884457695
 51
258.3684577057
  0
ARC
  5
374
330
30C
100
AcDbEntity
  8
0
  6
Continuous
 62
     7
370
    25
100
AcDbCircle
 10
-46.7712128266
 20
51.0833073467
 30
0.0
 40
68.17726615345121
100
AcDbArc
 50
231.895750061
 51
243.3326053266
  0
ARC
  5
375
330
30C
100
AcDbEntity
  8
0
  6
Continuous
 62
     7
370
    25
100
AcDbCircle
 10
-47.909765711
 20
52.7657206
 30
0.0
 40
68.17726615345126
100
AcDbArc
 50
231.895750061
 51
243.3326053266
  0
ARC
  5
376
330
30C
100
AcDbEntity
  8
0
  6
Continuous
 62
     7
370
    25
100
AcDbCircle
 10
-78.2422582136
 20
-8.0889891671
 30
0.0
 40
0.2753176984197991
100
AcDbArc
 50
141.0765536373
 51
194.800661264
  0
ARC
  5
377
330
30C
100
AcDbEntity
  8
0
  6
Continuous
 62
     7
370
    25
100
AcDbCircle
 10
-74.841892471
 20
-10.0557280897
 30
0.0
 40
0.0850123290350566
100
AcDbArc
 50
278.576260005
 51
305.7837246981
  0
ARC
  5
378
330
30C
100
AcDbEntity
  8
0
  6
Continuous
 62
     7
370
    25
100
AcDbCircle
 10
-89.7542299112
 20
-0.8354581741
 30
0.0
 40
0.2320973885362094
100
AcDbArc
 50
129.5306669687
 51
191.6275854404
  0
ARC
  5
379
330
30C
100
AcDbEntity
  8
0
  6
Continuous
 62
     7
370
    25
100
AcDbCircle
 10
-73.4207816872
 20
-7.9910551085
 30
0.0
 40
2.569191541471409
100
AcDbArc
 50
236.7563214699
 51
248.5466289675
  0
ARC
  5
37A
330
30C
100
AcDbEntity
  8
0
  6
Continuous
 62
     7
370
    25
100
AcDbCircle
 10
-74.1533235288
 20
-10.3145040876
 30
0.0
 40
0.7721134632022887
100
AcDbArc
 50
267.350191873
 51
288.3440446052
  0
ARC
  5
37B
330
30C
100
AcDbEntity
  8
0
  6
Continuous
 62
     7
370
    25
100
AcDbCircle
 10
-67.8094938062
 20
27.3811534844
 30
0.0
 40
35.92241593949144
100
AcDbArc
 50
191.2907774823
 51
231.8865180586
  0
ARC
  5
37C
330
30C
100
AcDbEntity
  8
0
  6
Continuous
 62
     7
370
    25
100
AcDbCircle
 10
-66.6808236022
 20
25.7088500931
 30
0.0
 40
35.92427321171984
100
AcDbArc
 50
214.1220148563
 51
231.9088716192
  0
ARC
  5
37D
330
30C
100
AcDbEntity
  8
0
  6
Continuous
 62
     7
370
    25
100
AcDbCircle
 10
-74.0899001082
 20
-10.9442979972
 30
0.0
 40
0.1727575796266024
100
AcDbArc
 50
234.9880051823
 51
259.0396769531
  0
ARC
  5
37E
330
30C
100
AcDbEntity
  8
0
  6
Continuous
 62
     8
370
    25
100
AcDbCircle
 10
42.8236957174
 20
64.19781087
 30
0.0
 40
91.2640659556953
100
AcDbArc
 50
287.249168307
 51
290.3408830616
  0
VIEWPORT
  5
38D
330
30C
100
AcDbEntity
  8
0
100
AcDbViewport
 10
0.0
 20
0.0
 30
0.0
 40
205.6
 41
156.0
 68
     1
 69
     1
 12
-13.0911322451
 22
0.9264697138
 13
0.0
 23
0.0
 14
10.0
 24
10.0
 15
10.0
 25
10.0
 16
0.0
 26
0.0
 36
1.0
 17
0.0
 27
0.0
 37
0.0
 42
50.0
 43
0.0
 44
0.0
 45
27.8940017838
 50
0.0
 51
0.0
 72
   100
 90
   557152
  1

281
     0
 71
     1
 74
     0
110
0.0
120
0.0
130
0.0
111
1.0
121
0.0
131
0.0
112
0.0
122
1.0
132
0.0
 79
     0
146
0.0
  0
ENDBLK
  5
30F
330
30C
100
AcDbEntity
  8
0
100
AcDbBlockEnd
  0
ENDSEC
  0
SECTION
  2
ENTITIES
  0
SPLINE
  5
73
330
1F
100
AcDbEntity
  8
0
  6
Continuous
 62
     7
370
    25
100
AcDbSpline
210
0.0
220
0.0
230
1.0
 70
     8
 71
     3
 72
    18
 73
    14
 74
     0
 42
0.000000001
 43
0.00000001
 40
0.0
 40
0.0
 40
0.0
 40
0.0
 40
0.1249999999999999
 40
0.1249999999999999
 40
0.2499999999999999
 40
0.2499999999999999
 40
0.5000000000000007
 40
0.5000000000000007
 40
0.6250000000000006
 40
0.6250000000000006
 40
0.7500000000000006
 40
0.7500000000000006
 40
1.0
 40
1.0
 40
1.0
 40
1.0
 10
0.0
 20
14.36319446847651
 30
0.0
 10
-0.3894892656246471
 20
14.36355781984542
 30
0.0
 10
-0.7761583904581978
 20
14.34230165603221
 30
0.0
 10
-1.54366657343522
 20
14.25775722436552
 30
0.0
 10
-1.925156992035026
 20
14.19409640918498
 30
0.0
 10
-3.03879829854216
 20
13.94590321292176
 30
0.0
 10
-3.74782978605427
 20
13.70430150908317
 30
0.0
 10
-4.762089991208836
 20
13.2357161533025
 30
0.0
 10
-5.093803553030894
 20
13.06047148768758
 30
0.0
 10
-5.729533020088487
 20
12.68058125077431
 30
0.0
 10
-6.033219922332886
 20
12.47648858499742
 30
0.0
 10
-6.903913870249169
 20
11.82472709654921
 30
0.0
 10
-7.430886565248522
 20
11.33796132288694
 30
0.0
 10
-7.905608369075926
 20
10.80146020065695
 30
0.0
  0
LWPOLYLINE
  5
74
330
1F
100
AcDbEntity
  8
0
  6
Continuous
 62
     7
370
    25
100
AcDbPolyline
 90
        9
 70
   128
 43
0.0
 10
-8.0
 20
10.9965933029
 10
-8.0079281129
 20
10.9818342728
 10
-8.009795513
 20
10.9625492053
 10
-8.0055304372
 20
10.9394792145
 10
-7.9952967901
 20
10.9135108673
 10
-7.9794878449
 20
10.8856421127
 10
-7.9587111304
 20
10.8569439313
 10
-7.9337650843
 20
10.8285191782
 10
-7.9056083691
 20
10.8014602007
  0
SPLINE
  5
75
330
1F
100
AcDbEntity
  8
0
  6
Continuous
 62
     7
370
    25
100
AcDbSpline
210
0.0
220
0.0
230
1.0
 70
     8
 71
     3
 72
    18
 73
    14
 74
     0
 42
0.000000001
 43
0.00000001
 40
0.0
 40
0.0
 40
0.0
 40
0.0
 40
0.2500000000000004
 40
0.2500000000000004
 40
0.3750000000000005
 40
0.3750000000000005
 40
0.5000000000000006
 40
0.5000000000000006
 40
0.7500000000000008
 40
0.7500000000000008
 40
0.8750000000000004
 40
0.8750000000000004
 40
1.0
 40
1.0
 40
1.0
 40
1.0
 10
-8.000000000000002
 20
10.99659330286613
 30
0.0
 10
-7.51885302750954
 20
11.5403557519837
 30
0.0
 10
-6.984829807924037
 20
12.03324974383109
 30
0.0
 10
-6.102839560855925
 20
12.69273367761805
 30
0.0
 10
-5.795266077843384
 20
12.89915407652211
 30
0.0
 10
-5.151550454465355
 20
13.28323467432987
 30
0.0
 10
-4.815656416500939
 20
13.46038074970586
 30
0.0
 10
-3.788988773904463
 20
13.93383907261005
 30
0.0
 10
-3.071700529350338
 20
14.17768631233441
 30
0.0
 10
-1.945892044426354
 20
14.42830441672136
 30
0.0
 10
-1.560344954244897
 20
14.49263150022268
 30
0.0
 10
-0.7844372413380908
 20
14.57830645154818
 30
0.0
 10
-0.3936079478035586
 20
14.6
 30
0.0
 10
0.0000000000000035
 20
14.6
 30
0.0
  0
SPLINE
  5
76
330
1F
100
AcDbEntity
  8
0
  6
Continuous
 62
     7
370
    25
100
AcDbSpline
210
0.0
220
0.0
230
1.0
 70
    24
 71
     3
 72
    10
 73
     6
 74
     0
 42
0.000000001
 43
0.00000001
 40
0.0
 40
0.0
 40
0.0
 40
0.0
 40
0.5
 40
0.5
 40
1.0
 40
1.0
 40
1.0
 40
1.0
 10
0.0000000000000052
 20
14.6
 30
0.0
 10
0.0000000000000052
 20
14.6
 30
0.0
 10
0.0
 20
14.57308380224897
 30
0.0
 10
0.0
 20
14.48376472356068
 30
0.0
 10
0.0
 20
14.42161346407491
 30
0.0
 10
0.0
 20
14.36319446847651
 30
0.0
  0
SPLINE
  5
7A
330
1F
100
AcDbEntity
  8
0
  6
Continuous
 62
     7
370
    25
100
AcDbSpline
210
0.0
220
0.0
230
1.0
 70
     8
 71
     3
 72
    30
 73
    26
 74
     0
 42
0.000000001
 43
0.00000001
 40
0.0
 40
0.0
 40
0.0
 40
0.0
 40
0.1250000000000002
 40
0.1250000000000002
 40
0.2500000000000003
 40
0.2500000000000003
 40
0.3750000000000005
 40
0.3750000000000005
 40
0.4375000000000004
 40
0.4375000000000004
 40
0.5000000000000004
 40
0.5000000000000004
 40
0.5625000000000004
 40
0.5625000000000004
 40
0.6250000000000003
 40
0.6250000000000003
 40
0.7500000000000003
 40
0.7500000000000003
 40
0.8125000000000003
 40
0.8125000000000003
 40
0.8750000000000002
 40
0.8750000000000002
 40
0.9375000000000002
 40
0.9375000000000002
 40
1.0
 40
1.0
 40
1.0
 40
1.0
 10
-10.25617988335495
 20
1.656103835494272
 30
0.0
 10
-9.962878685238577
 20
1.987574647814901
 30
0.0
 10
-9.635301040308665
 20
2.287764796218661
 30
0.0
 10
-8.909051274805885
 20
2.821009970932265
 30
0.0
 10
-8.508622994414281
 20
3.055056537505133
 30
0.0
 10
-7.632913429402588
 20
3.437067388200146
 30
0.0
 10
-7.170183493589546
 20
3.5799663693297
 30
0.0
 10
-6.436788070058342
 20
3.712073302716916
 30
0.0
 10
-6.183895056802942
 20
3.742350728325932
 30
0.0
 10
-5.673167706485343
 20
3.771226035600512
 30
0.0
 10
-5.416625319450226
 20
3.769995020284953
 30
0.0
 10
-4.901500626139087
 20
3.735264614525101
 30
0.0
 10
-4.642918190011206
 20
3.701777973783809
 30
0.0
 10
-4.123935901936358
 20
3.600149503822383
 30
0.0
 10
-3.861131118604299
 20
3.531110322649124
 30
0.0
 10
-3.092050088867227
 20
3.273381893046306
 30
0.0
 10
-2.60433350648662
 20
3.036583873732715
 30
0.0
 10
-1.913537563829284
 20
2.577201487309553
 30
0.0
 10
-1.692404788546258
 20
2.407591574703603
 30
0.0
 10
-1.279430397610911
 20
2.044678556279743
 30
0.0
 10
-1.085784633563925
 20
1.850215118183933
 30
0.0
 10
-0.7242609521471016
 20
1.435194083986997
 30
0.0
 10
-0.5557138409849338
 20
1.21326806943551
 30
0.0
 10
-0.2535408708311693
 20
0.7548956638893529
 30
0.0
 10
-0.1187621484949868
 20
0.5174106052126104
 30
0.0
 10
-0.0000000000000069
 20
0.2718490011180805
 30
0.0
  0
SPLINE
  5
7E
330
1F
100
AcDbEntity
  8
0
  6
Continuous
 62
     7
370
    25
100
AcDbSpline
210
0.0
220
0.0
230
1.0
 70
     8
 71
     3
 72
    30
 73
    26
 74
     0
 42
0.000000001
 43
0.00000001
 40
0.0
 40
0.0
 40
0.0
 40
0.0
 40
0.0624999999999993
 40
0.0624999999999993
 40
0.1249999999999987
 40
0.1249999999999987
 40
0.2499999999999973
 40
0.2499999999999973
 40
0.3749999999999959
 40
0.3749999999999959
 40
0.4374999999999956
 40
0.4374999999999956
 40
0.4999999999999952
 40
0.4999999999999952
 40
0.5624999999999949
 40
0.5624999999999949
 40
0.6249999999999946
 40
0.6249999999999946
 40
0.7499999999999952
 40
0.7499999999999952
 40
0.8124999999999964
 40
0.8124999999999964
 40
0.8749999999999977
 40
0.8749999999999977
 40
1.0
 40
1.0
 40
1.0
 40
1.0
 10
0.0000000000001023
 20
-0.0000000000002405
 30
0.0
 10
-0.1059719232130163
 20
0.2470259057672676
 30
0.0
 10
-0.2282518781453174
 20
0.4865353232759662
 30
0.0
 10
-0.5058535045067356
 20
0.9501323223564379
 30
0.0
 10
-0.6622997735325366
 20
1.175598242321933
 30
0.0
 10
-1.176557101002276
 20
1.817260394255753
 30
0.0
 10
-1.571488516371993
 20
2.192344222251562
 30
0.0
 10
-2.46732089201329
 20
2.835297961185603
 30
0.0
 10
-2.946390559484365
 20
3.086894221376516
 30
0.0
 10
-3.700222314543379
 20
3.36423535648736
 30
0.0
 10
-3.959961805021653
 20
3.440289189819701
 30
0.0
 10
-4.474325961260182
 20
3.554903901868694
 30
0.0
 10
-4.730485730166335
 20
3.594318137958457
 30
0.0
 10
-5.240549867374524
 20
3.640244057271924
 30
0.0
 10
-5.494454151865141
 20
3.646738996239641
 30
0.0
 10
-5.999685981675466
 20
3.628029764742446
 30
0.0
 10
-6.251346477676906
 20
3.602482245600202
 30
0.0
 10
-6.979790085963613
 20
3.483438661472285
 30
0.0
 10
-7.438283986866793
 20
3.348148314390943
 30
0.0
 10
-8.08779917581398
 20
3.072750243951773
 30
0.0
 10
-8.29642186333634
 20
2.96919210529006
 30
0.0
 10
-8.691984010114655
 20
2.744455935476536
 30
0.0
 10
-8.880080673460148
 20
2.622792620274635
 30
0.0
 10
-9.417170211871193
 20
2.232401622569069
 30
0.0
 10
-9.739202105233993
 20
1.938551371844839
 30
0.0
 10
-10.02669213764851
 20
1.613647978369039
 30
0.0
  0
LWPOLYLINE
  5
7F
330
1F
100
AcDbEntity
  8
0
  6
Continuous
 62
     7
370
    25
100
AcDbPolyline
 90
        9
 70
   128
 43
0.0
 10
-10.0266921376
 20
1.6136479784
 10
-10.0451199693
 20
1.5986211555
 10
-10.0685956696
 20
1.5892650238
 10
-10.0962170804
 20
1.5859391341
 10
-10.1269227264
 20
1.5887712986
 10
-10.159532607
 20
1.5976526788
 10
-10.1927935426
 20
1.6122419681
 10
-10.2254273341
 20
1.6319785084
 10
-10.2561798834
 20
1.6561038355
  0
SPLINE
  5
80
330
1F
100
AcDbEntity
  8
0
  6
Continuous
 62
     7
370
    25
100
AcDbSpline
210
0.0
220
0.0
230
1.0
 70
    24
 71
     3
 72
    12
 73
     8
 74
     0
 42
0.000000001
 43
0.00000001
 40
0.0
 40
0.0
 40
0.0
 40
0.0
 40
0.4999999999999674
 40
0.4999999999999674
 40
0.7499999999999837
 40
0.7499999999999837
 40
1.0
 40
1.0
 40
1.0
 40
1.0
 10
-0.0000000000000069
 20
0.2718490011180801
 30
0.0
 10
-0.0000000000000069
 20
0.2132550796266797
 30
0.0
 10
0.0
 20
0.1574854705034388
 30
0.0
 10
0.0
 20
0.0812320594737779
 30
0.0
 10
0.0
 20
0.0570459577095509
 30
0.0
 10
0.0
 20
0.0170850983118598
 30
0.0
 10
0.0
 20
-0.0000000000011232
 30
0.0
 10
0.0
 20
0.0000000000031713
 30
0.0
  0
SPLINE
  5
83
330
1F
100
AcDbEntity
  8
0
  6
Continuous
 62
     7
370
    25
100
AcDbSpline
210
0.0
220
0.0
230
1.0
 70
     8
 71
     3
 72
    16
 73
    12
 74
     0
 42
0.000000001
 43
0.00000001
 40
0.0
 40
0.0
 40
0.0
 40
0.0
 40
0.2500000000000022
 40
0.2500000000000022
 40
0.5000000000000044
 40
0.5000000000000044
 40
0.7500000000000067
 40
0.7500000000000067
 40
0.8750000000000033
 40
0.8750000000000033
 40
1.0
 40
1.0
 40
1.0
 40
1.0
 10
-25.78159566565245
 20
-9.400871287511276
 30
0.0
 10
-25.85948244217347
 20
-9.48889408880985
 30
0.0
 10
-25.92384680632825
 20
-9.585145723960844
 30
0.0
 10
-26.02645853638898
 20
-9.79349987313512
 30
0.0
 10
-26.06482926746181
 20
-9.905497959754445
 30
0.0
 10
-26.11018579651427
 20
-10.14987367409159
 30
0.0
 10
-26.11786167365842
 20
-10.2821788758112
 30
0.0
 10
-26.0893737646037
 20
-10.5048504966771
 30
0.0
 10
-26.07330135202899
 20
-10.58318492931702
 30
0.0
 10
-26.01662244073625
 20
-10.75646380246495
 30
0.0
 10
-25.97768796260008
 20
-10.8509305775376
 30
0.0
 10
-25.90679809951268
 20
-10.96249639166391
 30
0.0
  0
SPLINE
  5
86
330
1F
100
AcDbEntity
  8
0
  6
Continuous
 62
     7
370
    25
100
AcDbSpline
210
0.0
220
0.0
230
1.0
 70
     8
 71
     3
 72
    16
 73
    12
 74
     0
 42
0.000000001
 43
0.00000001
 40
0.0
 40
0.0
 40
0.0
 40
0.0
 40
0.1250000000000004
 40
0.1250000000000004
 40
0.2500000000000007
 40
0.2500000000000007
 40
0.5000000000000004
 40
0.5000000000000004
 40
0.7500000000000002
 40
0.7500000000000002
 40
1.0
 40
1.0
 40
1.0
 40
1.0
 10
-24.09605165861373
 20
-12.56473128191748
 30
0.0
 10
-23.97668593812628
 20
-12.62151269034248
 30
0.0
 10
-23.878182113319
 20
-12.64865788658769
 30
0.0
 10
-23.69929224233888
 20
-12.68382151730849
 30
0.0
 10
-23.61958384918982
 20
-12.69023851384775
 30
0.0
 10
-23.3951003446151
 20
-12.69140807582183
 30
0.0
 10
-23.26471351915729
 20
-12.66768337900535
 30
0.0
 10
-23.0276766402003
 20
-12.59291558848152
 30
0.0
 10
-22.92118247944984
 20
-12.54119636443951
 30
0.0
 10
-22.72686911521781
 20
-12.41398419872796
 30
0.0
 10
-22.63916858011066
 20
-12.33838152163109
 30
0.0
 10
-22.56128180358964
 20
-12.25035872033252
 30
0.0
  0
SPLINE
  5
8C
330
1F
100
AcDbEntity
  8
0
  6
Continuous
 62
     7
370
    25
100
AcDbSpline
210
0.0
220
0.0
230
1.0
 70
     8
 71
     3
 72
    16
 73
    12
 74
     0
 42
0.000000001
 43
0.00000001
 40
0.0
 40
0.0
 40
0.0
 40
0.0
 40
0.1249999999999999
 40
0.1249999999999999
 40
0.2499999999999998
 40
0.2499999999999998
 40
0.4999999999999999
 40
0.4999999999999999
 40
0.7499999999999999
 40
0.7499999999999999
 40
1.0
 40
1.0
 40
1.0
 40
1.0
 10
-25.94815187643906
 20
-10.92590459573877
 30
0.0
 10
-26.02579715402486
 20
-10.80387981950708
 30
0.0
 10
-26.07175811424692
 20
-10.69615937867158
 30
0.0
 10
-26.13810233899052
 20
-10.49812991528092
 30
0.0
 10
-26.15739028161842
 20
-10.40795518790577
 30
0.0
 10
-26.19225613796656
 20
-10.15094736197444
 30
0.0
 10
-26.18447072953771
 20
-9.997021801598107
 30
0.0
 10
-26.13337544143634
 20
-9.713032521747325
 30
0.0
 10
-26.08938546116948
 20
-9.582876106322255
 30
0.0
 10
-25.97100692253026
 20
-9.340745455982624
 30
0.0
 10
-25.89647443145529
 20
-9.228891473744076
 30
0.0
 10
-25.80599275599264
 20
-9.12663469928042
 30
0.0
  0
SPLINE
  5
8E
330
1F
100
AcDbEntity
  8
0
  6
Continuous
 62
     7
370
    25
100
AcDbSpline
210
0.0
220
0.0
230
1.0
 70
     8
 71
     3
 72
    16
 73
    12
 74
     0
 42
0.000000001
 43
0.00000001
 40
0.0
 40
0.0
 40
0.0
 40
0.0
 40
0.25
 40
0.25
 40
0.5
 40
0.5
 40
0.75
 40
0.75
 40
0.875
 40
0.875
 40
1.0
 40
1.0
 40
1.0
 40
1.0
 10
-22.2861148137379
 20
-12.24119073050362
 30
0.0
 10
-22.37659648920054
 20
-12.34344750496727
 30
0.0
 10
-22.47854553860082
 20
-12.43104200761927
 30
0.0
 10
-22.70446486376112
 20
-12.57801543638568
 30
0.0
 10
-22.82829825982166
 20
-12.63752258604265
 30
0.0
 10
-23.10395549746169
 20
-12.72280873305955
 30
0.0
 10
-23.25578855493161
 20
-12.74927405718206
 30
0.0
 10
-23.51512930880491
 20
-12.74595382989008
 30
0.0
 10
-23.60698137511093
 20
-12.73778657188557
 30
0.0
 10
-23.8116143507466
 20
-12.6960424727803
 30
0.0
 10
-23.9241286268693
 20
-12.66353645938841
 30
0.0
 10
-24.05469788168347
 20
-12.60132307784504
 30
0.0
  0
LINE
  5
95
330
1F
100
AcDbEntity
  8
0
  6
Continuous
 62
     7
370
    25
100
AcDbLine
 10
-18.4598678778
 20
-7.6151952284
 30
0.0
 11
-21.6801817399
 21
-4.7657077956
 31
0.0
  0
LINE
  5
96
330
1F
100
AcDbEntity
  8
0
  6
Continuous
 62
     7
370
    25
100
AcDbLine
 10
-7.9056083691
 20
10.8014602007
 30
0.0
 11
-25.7815956657
 21
-9.4008712875
 31
0.0
  0
LINE
  5
97
330
1F
100
AcDbEntity
  8
0
  6
Continuous
 62
     7
370
    25
100
AcDbLine
 10
0.0
 20
0.2718490011
 30
0.0
 11
0.0
 21
14.3631944685
 31
0.0
  0
LINE
  5
98
330
1F
100
AcDbEntity
  8
0
  6
Continuous
 62
     7
370
    25
100
AcDbLine
 10
-22.5612818036
 20
-12.2503587203
 30
0.0
 11
-10.2561798834
 21
1.6561038355
 31
0.0
  0
LINE
  5
99
330
1F
100
AcDbEntity
  8
0
  6
Continuous
 62
     7
370
    25
100
AcDbLine
 10
-25.805992756
 20
-9.1266346993
 30
0.0
 11
-8.0
 21
10.9965933029
 31
0.0
  0
LINE
  5
9A
330
1F
100
AcDbEntity
  8
0
  6
Continuous
 62
     7
370
    25
100
AcDbLine
 10
-10.0266921376
 20
1.6136479784
 30
0.0
 11
-22.2861148137
 21
-12.2411907305
 31
0.0
  0
LINE
  5
9B
330
1F
100
AcDbEntity
  8
0
  6
Continuous
 62
     7
370
    25
100
AcDbLine
 10
-25.9067980995
 20
-10.9624963917
 30
0.0
 11
-24.0960516586
 21
-12.5647312819
 31
0.0
  0
LINE
  5
9C
330
1F
100
AcDbEntity
  8
0
  6
Continuous
 62
     7
370
    25
100
AcDbLine
 10
-24.4034873585
 20
-12.3705487872
 30
0.0
 11
-25.6766346993
 21
-11.244007244
 31
0.0
  0
ARC
  5
9D
330
1F
100
AcDbEntity
  8
0
  6
Continuous
 62
     7
370
    25
100
AcDbCircle
 10
-21.5645321581
 20
-4.6168712052
 30
0.0
 40
0.1884864886238156
100
AcDbArc
 50
142.6915725053
 51
232.1519408557
  0
ARC
  5
9E
330
1F
100
AcDbEntity
  8
0
  6
Continuous
 62
     7
370
    25
100
AcDbCircle
 10
-18.32621657
 20
-7.4822874246
 30
0.0
 40
0.1884864886238217
100
AcDbArc
 50
224.8401873017
 51
314.3005556521
  0
ARC
  5
9F
330
1F
100
AcDbEntity
  8
0
  6
Continuous
 62
     7
370
    25
100
AcDbCircle
 10
-22.4282893533
 20
-12.1079796402
 30
0.0
 40
0.1948301677896934
100
AcDbArc
 50
226.9522937499
 51
316.8642460366
  0
ARC
  5
A0
330
1F
100
AcDbEntity
  8
0
  6
Continuous
 62
     7
370
    25
100
AcDbCircle
 10
-25.6564650419
 20
-9.251535688
 30
0.0
 40
0.1948301677896888
100
AcDbArc
 50
140.1278821209
 51
230.0398344075
  0
ARC
  5
A1
330
1F
100
AcDbEntity
  8
0
  6
Continuous
 62
     7
370
    25
100
AcDbCircle
 10
-25.8616761674
 20
-10.8698387501
 30
0.0
 40
0.1030603089994585
100
AcDbArc
 50
212.95704102
 51
244.0350871369
  0
ARC
  5
A2
330
1F
100
AcDbEntity
  8
0
  6
Continuous
 62
     7
370
    25
100
AcDbCircle
 10
-24.0095759496
 20
-12.5086654363
 30
0.0
 40
0.103060308999504
100
AcDbArc
 50
212.9570410205
 51
244.0350871374
  0
ARC
  5
A3
330
1F
100
AcDbEntity
  8
0
  6
Continuous
 62
     7
370
    25
100
AcDbCircle
 10
-24.9208459018
 20
-10.391227705
 30
0.0
 40
1.139495348206733
100
AcDbArc
 50
210.0883498425
 51
228.4505467036
  0
ARC
  5
A4
330
1F
100
AcDbEntity
  8
0
  6
Continuous
 62
     7
370
    25
100
AcDbCircle
 10
-23.6490544584
 20
-11.5165694855
 30
0.0
 40
1.139495348206728
100
AcDbArc
 50
228.5415814538
 51
246.9037783149
  0
ARC
  5
A5
330
1F
100
AcDbEntity
  8
0
  6
Continuous
 62
     7
370
    25
100
AcDbCircle
 10
-23.4094801145
 20
-11.2471834865
 30
0.0
 40
1.500000000000041
100
AcDbArc
 50
228.4960640787
 51
244.523226136
  0
ARC
  5
A6
330
1F
100
AcDbEntity
  8
0
  6
Continuous
 62
     7
370
    25
100
AcDbCircle
 10
-24.6826274553
 20
-10.1206419433
 30
0.0
 40
1.500000000000202
100
AcDbArc
 50
212.4689020214
 51
228.4960640787
  0
SPLINE
  5
A8
330
1B
100
AcDbEntity
 67
     1
  8
0
  6
Continuous
 62
     7
370
    25
100
AcDbSpline
210
0.0
220
0.0
230
1.0
 70
     8
 71
     3
 72
    18
 73
    14
 74
     0
 42
0.000000001
 43
0.00000001
 40
0.0
 40
0.0
 40
0.0
 40
0.0
 40
0.1249999999999993
 40
0.1249999999999993
 40
0.2499999999999987
 40
0.2499999999999987
 40
0.4999999999999982
 40
0.4999999999999982
 40
0.6249999999999986
 40
0.6249999999999986
 40
0.7499999999999989
 40
0.7499999999999989
 40
1.0
 40
1.0
 40
1.0
 40
1.0
 10
-109.7561484150619
 20
0.0
 30
0.0
 10
-109.6912274610632
 20
-0.393607947803562
 30
0.0
 10
-109.6203622695248
 20
-0.7844372413380891
 30
0.0
 10
-109.4652751221191
 20
-1.560344954244895
 30
0.0
 10
-109.3808526652103
 20
-1.945892044426351
 30
0.0
 10
-109.110442299798
 20
-3.071700529350336
 30
0.0
 10
-108.906027457815
 20
-3.788988773904463
 30
0.0
 10
-108.5565035959193
 20
-4.815656416500941
 30
0.0
 10
-108.431997794252
 20
-5.151550454465349
 30
0.0
 10
-108.1716905207359
 20
-5.79526607784338
 30
0.0
 10
-108.0361602326857
 20
-6.102839560855926
 30
0.0
 10
-107.6130083864842
 20
-6.98482980792404
 30
0.0
 10
-107.3088684672588
 20
-7.518853027509543
 30
0.0
 10
-106.981103103087
 20
-8.000000000000005
 30
0.0
  0
LWPOLYLINE
  5
A9
330
1B
100
AcDbEntity
 67
     1
  8
0
  6
Continuous
 62
     7
370
    25
100
AcDbPolyline
 90
        9
 70
   128
 43
0.0
 10
-106.9811031031
 20
-8.0
 10
-107.0165501569
 20
-8.0079281129
 10
-107.0506350004
 20
-8.009795513
 10
-107.082047772
 20
-8.0055304372
 10
-107.1095812966
 20
-7.9952967901
 10
-107.1321774763
 20
-7.9794878449
 10
-107.1489679526
 20
-7.9587111304
 10
-107.1593074768
 20
-7.9337650843
 10
-107.1627987069
 20
-7.9056083691
  0
SPLINE
  5
AA
330
1B
100
AcDbEntity
 67
     1
  8
0
  6
Continuous
 62
     7
370
    25
100
AcDbSpline
210
0.0
220
0.0
230
1.0
 70
     8
 71
     3
 72
    18
 73
    14
 74
     0
 42
0.000000001
 43
0.00000001
 40
0.0
 40
0.0
 40
0.0
 40
0.0
 40
0.2499999999999999
 40
0.2499999999999999
 40
0.3749999999999998
 40
0.3749999999999998
 40
0.4999999999999996
 40
0.4999999999999996
 40
0.7499999999999993
 40
0.7499999999999993
 40
0.8749999999999997
 40
0.8749999999999997
 40
1.0
 40
1.0
 40
1.0
 40
1.0
 10
-107.162798706869
 20
-7.905608369075923
 30
0.0
 10
-107.49235738509
 20
-7.430886565248519
 30
0.0
 10
-107.7983166768912
 20
-6.903913870249165
 30
0.0
 10
-108.2241355770053
 20
-6.033219922332885
 30
0.0
 10
-108.3605448057226
 20
-5.729533020088481
 30
0.0
 10
-108.6225752197159
 20
-5.093803553030888
 30
0.0
 10
-108.7478912344712
 20
-4.762089991208836
 30
0.0
 10
-109.0997634774992
 20
-3.74782978605427
 30
0.0
 10
-109.3056206609729
 20
-3.038798298542157
 30
0.0
 10
-109.5779173687119
 20
-1.925156992035023
 30
0.0
 10
-109.662917522039
 20
-1.543666573435222
 30
0.0
 10
-109.8189471032616
 20
-0.7761583904581995
 30
0.0
 10
-109.8902198501578
 20
-0.3894892656246523
 30
0.0
 10
-109.9554847021401
 20
-0.0000000000000035
 30
0.0
  0
SPLINE
  5
AB
330
1B
100
AcDbEntity
 67
     1
  8
0
  6
Continuous
 62
     7
370
    25
100
AcDbSpline
210
0.0
220
0.0
230
1.0
 70
    24
 71
     3
 72
    10
 73
     6
 74
     0
 42
0.000000001
 43
0.00000001
 40
0.0
 40
0.0
 40
0.0
 40
0.0
 40
0.5
 40
0.5
 40
1.0
 40
1.0
 40
1.0
 40
1.0
 10
-109.9554847021401
 20
-0.0000000000000069
 30
0.0
 10
-109.9665546261556
 20
-0.0000000000000069
 30
0.0
 10
-109.9496502538174
 20
0.0
 30
0.0
 10
-109.873772990132
 20
0.0
 30
0.0
 10
-109.8155604990051
 20
0.0
 30
0.0
 10
-109.7561484150623
 20
0.0
 30
0.0
  0
SPLINE
  5
AC
330
1B
100
AcDbEntity
 67
     1
  8
0
  6
Continuous
 62
     7
370
    25
100
AcDbSpline
210
0.0
220
0.0
230
1.0
 70
     8
 71
     3
 72
    18
 73
    14
 74
     0
 42
0.000000001
 43
0.00000001
 40
0.0
 40
0.0
 40
0.0
 40
0.0
 40
0.1249999999999999
 40
0.1249999999999999
 40
0.2499999999999999
 40
0.2499999999999999
 40
0.5000000000000007
 40
0.5000000000000007
 40
0.6250000000000006
 40
0.6250000000000006
 40
0.7500000000000006
 40
0.7500000000000006
 40
1.0
 40
1.0
 40
1.0
 40
1.0
 10
109.9554847021401
 20
0.0
 30
0.0
 10
109.8902198501578
 20
-0.3894892656246471
 30
0.0
 10
109.8189471032616
 20
-0.7761583904581978
 30
0.0
 10
109.6629175220389
 20
-1.54366657343522
 30
0.0
 10
109.5779173687118
 20
-1.925156992035026
 30
0.0
 10
109.3056206609729
 20
-3.03879829854216
 30
0.0
 10
109.0997634774991
 20
-3.74782978605427
 30
0.0
 10
108.7478912344713
 20
-4.762089991208836
 30
0.0
 10
108.622575219716
 20
-5.093803553030894
 30
0.0
 10
108.3605448057226
 20
-5.729533020088487
 30
0.0
 10
108.2241355770053
 20
-6.033219922332886
 30
0.0
 10
107.7983166768912
 20
-6.903913870249169
 30
0.0
 10
107.4923573850899
 20
-7.430886565248522
 30
0.0
 10
107.162798706869
 20
-7.905608369075926
 30
0.0
  0
LWPOLYLINE
  5
AD
330
1B
100
AcDbEntity
 67
     1
  8
0
  6
Continuous
 62
     7
370
    25
100
AcDbPolyline
 90
        9
 70
   128
 43
0.0
 10
106.9811031031
 20
-8.0
 10
107.0165501569
 20
-8.0079281129
 10
107.0506350004
 20
-8.009795513
 10
107.082047772
 20
-8.0055304372
 10
107.1095812966
 20
-7.9952967901
 10
107.1321774763
 20
-7.9794878449
 10
107.1489679526
 20
-7.9587111304
 10
107.1593074768
 20
-7.9337650843
 10
107.1627987069
 20
-7.9056083691
  0
SPLINE
  5
AE
330
1B
100
AcDbEntity
 67
     1
  8
0
  6
Continuous
 62
     7
370
    25
100
AcDbSpline
210
0.0
220
0.0
230
1.0
 70
     8
 71
     3
 72
    18
 73
    14
 74
     0
 42
0.000000001
 43
0.00000001
 40
0.0
 40
0.0
 40
0.0
 40
0.0
 40
0.2500000000000004
 40
0.2500000000000004
 40
0.3750000000000005
 40
0.3750000000000005
 40
0.5000000000000006
 40
0.5000000000000006
 40
0.7500000000000008
 40
0.7500000000000008
 40
0.8750000000000004
 40
0.8750000000000004
 40
1.0
 40
1.0
 40
1.0
 40
1.0
 10
106.981103103087
 20
-8.000000000000002
 30
0.0
 10
107.3088684672588
 20
-7.51885302750954
 30
0.0
 10
107.6130083864842
 20
-6.984829807924037
 30
0.0
 10
108.0361602326857
 20
-6.102839560855925
 30
0.0
 10
108.1716905207359
 20
-5.795266077843384
 30
0.0
 10
108.431997794252
 20
-5.151550454465355
 30
0.0
 10
108.5565035959193
 20
-4.815656416500939
 30
0.0
 10
108.906027457815
 20
-3.788988773904463
 30
0.0
 10
109.110442299798
 20
-3.071700529350338
 30
0.0
 10
109.3808526652103
 20
-1.945892044426354
 30
0.0
 10
109.4652751221191
 20
-1.560344954244897
 30
0.0
 10
109.6203622695248
 20
-0.7844372413380908
 30
0.0
 10
109.6912274610633
 20
-0.3936079478035586
 30
0.0
 10
109.7561484150619
 20
0.0000000000000035
 30
0.0
  0
SPLINE
  5
AF
330
1B
100
AcDbEntity
 67
     1
  8
0
  6
Continuous
 62
     7
370
    25
100
AcDbSpline
210
0.0
220
0.0
230
1.0
 70
    24
 71
     3
 72
    10
 73
     6
 74
     0
 42
0.000000001
 43
0.00000001
 40
0.0
 40
0.0
 40
0.0
 40
0.0
 40
0.5
 40
0.5
 40
1.0
 40
1.0
 40
1.0
 40
1.0
 10
109.7561484150619
 20
0.0000000000000052
 30
0.0
 10
109.8155840664931
 20
0.0000000000000052
 30
0.0
 10
109.873654384288
 20
0.0
 30
0.0
 10
109.9495154865062
 20
0.0
 30
0.0
 10
109.9665592887139
 20
0.0
 30
0.0
 10
109.9554847021401
 20
0.0
 30
0.0
  0
LWPOLYLINE
  5
B7
330
1B
100
AcDbEntity
 67
     1
  8
0
  6
Continuous
 62
     7
370
    25
100
AcDbPolyline
 90
        9
 70
   128
 43
0.0
 10
87.9019444462
 20
-21.7144513593
 10
87.9210741357
 20
-21.7341086947
 10
87.9394686821
 20
-21.74725457
 10
87.9564211931
 20
-21.7533837965
 10
87.9712801932
 20
-21.7522608314
 10
87.9834746595
 20
-21.7439288297
 10
87.9925359654
 20
-21.7287079856
 10
87.99811589
 20
-21.7071832275
 10
88.0
 20
-21.6801817399
  0
LWPOLYLINE
  5
B9
330
1B
100
AcDbEntity
 67
     1
  8
0
  6
Continuous
 62
     7
370
    25
100
AcDbPolyline
 90
        9
 70
   128
 43
0.0
 10
-87.9019444462
 20
-21.7144513593
 10
-87.9210741357
 20
-21.7341086947
 10
-87.9394686821
 20
-21.74725457
 10
-87.9564211931
 20
-21.7533837965
 10
-87.9712801932
 20
-21.7522608314
 10
-87.9834746595
 20
-21.7439288297
 10
-87.9925359654
 20
-21.7287079856
 10
-87.99811589
 20
-21.7071832275
 10
-88.0
 20
-21.6801817399
  0
LWPOLYLINE
  5
BB
330
1B
100
AcDbEntity
 67
     1
  8
0
  6
Continuous
 62
     7
370
    25
100
AcDbPolyline
 90
        3
 70
   128
 43
0.0
 10
88.0
 20
-21.6801817399
 10
86.3379858838
 20
-22.283300795
 10
85.902964137
 20
-22.4358221772
  0
SPLINE
  5
BC
330
1B
100
AcDbEntity
 67
     1
  8
0
  6
Continuous
 62
     7
370
    25
100
AcDbSpline
210
0.0
220
0.0
230
1.0
 70
     8
 71
     3
 72
    10
 73
     6
 74
     0
 42
0.000000001
 43
0.00000001
 40
0.0
 40
0.0
 40
0.0
 40
0.0
 40
0.0690334163572537
 40
0.5304760031521164
 40
1.0
 40
1.0
 40
1.0
 40
1.0
 10
71.46898036685417
 20
-26.17649058772021
 30
0.0
 10
71.52813451618874
 20
-26.1780784570843
 30
0.0
 10
71.9826949068619
 20
-26.19028017964479
 30
0.0
 10
72.87529774308229
 20
-26.08752892062541
 30
0.0
 10
73.70252313596482
 20
-25.90037967091873
 30
0.0
 10
74.11972626611421
 20
-25.80599275599259
 30
0.0
  0
SPLINE
  5
BD
330
1B
100
AcDbEntity
 67
     1
  8
0
  6
Continuous
 62
     7
370
    25
100
AcDbSpline
210
0.0
220
0.0
230
1.0
 70
     8
 71
     3
 72
    10
 73
     6
 74
     0
 42
0.000000001
 43
0.00000001
 40
0.0
 40
0.0
 40
0.0
 40
0.0
 40
0.0690334163572089
 40
0.530476003152096
 40
1.0
 40
1.0
 40
1.0
 40
1.0
 10
-71.46898036685432
 20
-26.17649058772021
 30
0.0
 10
-71.52813451618883
 20
-26.1780784570843
 30
0.0
 10
-71.98269490686202
 20
-26.19028017964479
 30
0.0
 10
-72.87529774308227
 20
-26.08752892062539
 30
0.0
 10
-73.70252313596482
 20
-25.90037967091873
 30
0.0
 10
-74.11972626611424
 20
-25.8059927559926
 30
0.0
  0
LINE
  5
C0
330
1B
100
AcDbEntity
 67
     1
  8
0
  6
Continuous
 62
     7
370
    25
100
AcDbLine
 10
-71.4689803669
 20
-26.1826274553
 30
0.0
 11
71.4689803669
 21
-26.1826274553
 31
0.0
  0
LINE
  5
C1
330
1B
100
AcDbEntity
 67
     1
  8
0
  6
Continuous
 62
     7
370
    25
100
AcDbLine
 10
-106.9811031031
 20
-8.0
 30
0.0
 11
106.9811031031
 21
-8.0
 31
0.0
  0
LINE
  5
C2
330
1B
100
AcDbEntity
 67
     1
  8
0
  6
Continuous
 62
     7
370
    25
100
AcDbLine
 10
-109.7561484151
 20
0.0
 30
0.0
 11
109.7561484151
 21
0.0
 31
0.0
  0
LINE
  5
C3
330
1B
100
AcDbEntity
 67
     1
  8
0
  6
Continuous
 62
     7
370
    25
100
AcDbLine
 10
-74.1197262661
 20
-25.805992756
 30
0.0
 11
74.1197262661
 21
-25.805992756
 31
0.0
  0
LINE
  5
C4
330
1B
100
AcDbEntity
 67
     1
  8
0
  6
Continuous
 62
     8
370
    25
100
AcDbLine
 10
87.8310577772
 20
-21.7408454077
 30
0.0
 11
87.9019444462
 21
-21.7144513593
 31
0.0
  0
ARC
  5
C5
330
1B
100
AcDbEntity
 67
     1
  8
0
  6
Continuous
 62
     7
370
    25
100
AcDbCircle
 10
-75.236630171
 20
16.0335972141
 30
0.0
 40
39.81614442385642
100
AcDbArc
 50
217.1291992878
 51
251.4522457051
  0
ARC
  5
C6
330
1B
100
AcDbEntity
 67
     1
  8
0
  6
Continuous
 62
     7
370
    25
100
AcDbCircle
 10
75.236630171
 20
16.0335972141
 30
0.0
 40
39.81614442385661
100
AcDbArc
 50
288.5477542949
 51
322.8708007122
  0
ARC
  5
C7
330
1B
100
AcDbEntity
 67
     1
  8
0
  6
Continuous
 62
     7
370
    25
100
AcDbCircle
 10
50.3994006699
 20
79.3563122141
 30
0.0
 40
107.8042867098019
100
AcDbArc
 50
282.7108758926
 51
290.3172883692
  0
ARC
  5
C8
330
1B
100
AcDbEntity
 67
     1
  8
0
  6
Continuous
 62
     7
370
    25
100
AcDbCircle
 10
-49.6602698225
 20
82.1690494637
 30
0.0
 40
110.7107707129771
100
AcDbArc
 50
253.0193406498
 51
257.2362709783
  0
ARC
  5
C9
330
1B
100
AcDbEntity
 67
     1
  8
0
  6
Continuous
 62
     7
370
    25
100
AcDbCircle
 10
75.2791629664
 20
16.2333483793
 30
0.0
 40
39.99069217873269
100
AcDbArc
 50
288.5477542949
 51
322.8708007122
  0
ARC
  5
CA
330
1B
100
AcDbEntity
 67
     1
  8
0
  6
Continuous
 62
     7
370
    25
100
AcDbCircle
 10
-75.2791629664
 20
16.2333483793
 30
0.0
 40
39.99069217873247
100
AcDbArc
 50
217.1291992878
 51
251.4522457051
  0
ARC
  5
CB
330
1B
100
AcDbEntity
 67
     1
  8
0
  6
Continuous
 62
     8
370
    25
100
AcDbCircle
 10
-51.588062618
 20
75.8089109686
 30
0.0
 40
104.0649038492865
100
AcDbArc
 50
249.5766393668
 51
253.0117846637
  0
VIEWPORT
  5
37F
330
1B
100
AcDbEntity
 67
     1
  8
0
100
AcDbViewport
 10
0.0
 20
0.0
 30
0.0
 40
205.6
 41
156.0
 68
     1
 69
     1
 12
-13.0911322451
 22
0.9264697138
 13
0.0
 23
0.0
 14
10.0
 24
10.0
 15
10.0
 25
10.0
 16
0.0
 26
0.0
 36
1.0
 17
0.0
 27
0.0
 37
0.0
 42
50.0
 43
0.0
 44
0.0
 45
27.8940017838
 50
0.0
 51
0.0
 72
   100
 90
   557152
  1

281
     0
 71
     1
 74
     0
110
0.0
120
0.0
130
0.0
111
1.0
121
0.0
131
0.0
112
0.0
122
1.0
132
0.0
 79
     0
146
0.0
  0
ENDSEC
  0
SECTION
  2
OBJECTS
  0
DICTIONARY
  5
C
330
0
100
AcDbDictionary
281
     1
  3
ACAD_GROUP
350
D
  3
ACAD_LAYOUT
350
1A
  3
ACAD_MLINESTYLE
350
17
  3
ACAD_PLOTSETTINGS
350
19
  3
ACAD_PLOTSTYLENAME
350
E
  3
ACAD_SCALELIST
350
47
  0
DICTIONARY
  5
D
102
{ACAD_REACTORS
330
C
102
}
330
C
100
AcDbDictionary
281
     1
  0
DICTIONARY
  5
1A
102
{ACAD_REACTORS
330
C
102
}
330
C
100
AcDbDictionary
281
     1
  3
_Back
350
26
  3
_Bottom
350
1CC
  3
_Dimetric
350
30D
  3
_Front
350
FE
  3
_Isometric
350
251
  3
_Left
350
194
  3
_Top
350
1E
  3
_Trimetric
350
2A7
  3
Model
350
22
  0
DICTIONARY
  5
17
102
{ACAD_REACTORS
330
C
102
}
330
C
100
AcDbDictionary
281
     1
  3
Standard
350
18
  0
DICTIONARY
  5
19
102
{ACAD_REACTORS
330
C
102
}
330
C
100
AcDbDictionary
281
     1
  0
ACDBDICTIONARYWDFLT
  5
E
102
{ACAD_REACTORS
330
C
102
}
330
C
100
AcDbDictionary
281
     1
  3
Normal
350
F
100
AcDbDictionaryWithDefault
340
F
  0
DICTIONARY
  5
47
102
{ACAD_REACTORS
330
C
102
}
330
C
100
AcDbDictionary
281
     1
  3
A0
350
48
  3
A1
350
49
  3
A2
350
4A
  3
A3
350
4B
  3
A4
350
4C
  3
A5
350
4D
  3
A6
350
4E
  3
A7
350
4F
  3
A8
350
50
  3
A9
350
51
  3
B0
350
52
  3
B1
350
53
  3
B2
350
54
  3
B3
350
55
  3
B4
350
56
  3
B5
350
57
  3
B6
350
58
  3
B7
350
59
  3
B8
350
5A
  3
B9
350
5B
  3
C0
350
5C
  3
C1
350
5D
  3
C2
350
5E
  3
C3
350
5F
  3
C4
350
60
  3
C5
350
61
  3
C6
350
62
  3
C7
350
63
  3
C8
350
64
  3
C9
350
65
  3
D0
350
66
  3
D1
350
67
  3
D2
350
68
  0
LAYOUT
  5
26
102
{ACAD_REACTORS
330
1A
102
}
330
1A
100
AcDbPlotSettings
  1

  2
none_device
  4
ISO_A4_(210.00_x_297.00_MM)
  6

 40
7.5
 41
20.0
 42
7.5
 43
20.0
 44
210.0
 45
297.0
 46
0.0
 47
0.0
 48
0.0
 49
0.0
140
0.0
141
0.0
142
1.0
143
0.8557105178
 70
   688
 72
     1
 73
     1
 74
     1
  7

 75
     0
147
1.1686195029
148
109.9588068676
149
26.1826274553
100
AcDbLayout
  1
_Back
 70
     1
 71
     2
 10
0.0
 20
0.0
 11
0.0
 21
0.0
 12
0.0
 22
0.0
 32
0.0
 14
0.0
 24
0.0
 34
0.0
 15
0.0
 25
0.0
 35
0.0
146
0.0
 13
0.0
 23
0.0
 33
0.0
 16
1.0
 26
0.0
 36
0.0
 17
0.0
 27
1.0
 37
0.0
 76
     0
330
23
331
381
  0
LAYOUT
  5
1CC
102
{ACAD_REACTORS
330
1A
102
}
330
1A
100
AcDbPlotSettings
  1

  2
none_device
  4
ISO_A4_(210.00_x_297.00_MM)
  6

 40
7.5
 41
20.0
 42
7.5
 43
20.0
 44
210.0
 45
297.0
 46
0.0
 47
0.0
 48
0.0
 49
0.0
140
0.0
141
0.0
142
1.0
143
0.8557105178
 70
   688
 72
     1
 73
     1
 74
     1
  7

 75
     0
147
1.1686195029
148
109.9588068676
149
26.1826274553
100
AcDbLayout
  1
_Bottom
 70
     1
 71
     5
 10
0.0
 20
0.0
 11
0.0
 21
0.0
 12
0.0
 22
0.0
 32
0.0
 14
0.0
 24
0.0
 34
0.0
 15
0.0
 25
0.0
 35
0.0
146
0.0
 13
0.0
 23
0.0
 33
0.0
 16
1.0
 26
0.0
 36
0.0
 17
0.0
 27
1.0
 37
0.0
 76
     0
330
1CB
331
387
  0
LAYOUT
  5
30D
102
{ACAD_REACTORS
330
1A
102
}
330
1A
100
AcDbPlotSettings
  1

  2
none_device
  4
ISO_A4_(210.00_x_297.00_MM)
  6

 40
7.5
 41
20.0
 42
7.5
 43
20.0
 44
210.0
 45
297.0
 46
0.0
 47
0.0
 48
0.0
 49
0.0
140
0.0
141
0.0
142
1.0
143
0.8557105178
 70
   688
 72
     1
 73
     1
 74
     1
  7

 75
     0
147
1.1686195029
148
109.9588068676
149
26.1826274553
100
AcDbLayout
  1
_Dimetric
 70
     1
 71
     8
 10
0.0
 20
0.0
 11
0.0
 21
0.0
 12
0.0
 22
0.0
 32
0.0
 14
0.0
 24
0.0
 34
0.0
 15
0.0
 25
0.0
 35
0.0
146
0.0
 13
0.0
 23
0.0
 33
0.0
 16
1.0
 26
0.0
 36
0.0
 17
0.0
 27
1.0
 37
0.0
 76
     0
330
30C
331
38D
  0
LAYOUT
  5
FE
102
{ACAD_REACTORS
330
1A
102
}
330
1A
100
AcDbPlotSettings
  1

  2
none_device
  4
ISO_A4_(210.00_x_297.00_MM)
  6

 40
7.5
 41
20.0
 42
7.5
 43
20.0
 44
210.0
 45
297.0
 46
0.0
 47
0.0
 48
0.0
 49
0.0
140
0.0
141
0.0
142
1.0
143
0.8557105178
 70
   688
 72
     1
 73
     1
 74
     1
  7

 75
     0
147
1.1686195029
148
109.9588068676
149
26.1826274553
100
AcDbLayout
  1
_Front
 70
     1
 71
     3
 10
0.0
 20
0.0
 11
0.0
 21
0.0
 12
0.0
 22
0.0
 32
0.0
 14
0.0
 24
0.0
 34
0.0
 15
0.0
 25
0.0
 35
0.0
146
0.0
 13
0.0
 23
0.0
 33
0.0
 16
1.0
 26
0.0
 36
0.0
 17
0.0
 27
1.0
 37
0.0
 76
     0
330
FD
331
383
  0
LAYOUT
  5
251
102
{ACAD_REACTORS
330
1A
102
}
330
1A
100
AcDbPlotSettings
  1

  2
none_device
  4
ISO_A4_(210.00_x_297.00_MM)
  6

 40
7.5
 41
20.0
 42
7.5
 43
20.0
 44
210.0
 45
297.0
 46
0.0
 47
0.0
 48
0.0
 49
0.0
140
0.0
141
0.0
142
1.0
143
0.8557105178
 70
   688
 72
     1
 73
     1
 74
     1
  7

 75
     0
147
1.1686195029
148
109.9588068676
149
26.1826274553
100
AcDbLayout
  1
_Isometric
 70
     1
 71
     6
 10
0.0
 20
0.0
 11
0.0
 21
0.0
 12
0.0
 22
0.0
 32
0.0
 14
0.0
 24
0.0
 34
0.0
 15
0.0
 25
0.0
 35
0.0
146
0.0
 13
0.0
 23
0.0
 33
0.0
 16
1.0
 26
0.0
 36
0.0
 17
0.0
 27
1.0
 37
0.0
 76
     0
330
250
331
389
  0
LAYOUT
  5
194
102
{ACAD_REACTORS
330
1A
102
}
330
1A
100
AcDbPlotSettings
  1

  2
none_device
  4
ISO_A4_(210.00_x_297.00_MM)
  6

 40
7.5
 41
20.0
 42
7.5
 43
20.0
 44
210.0
 45
297.0
 46
0.0
 47
0.0
 48
0.0
 49
0.0
140
0.0
141
0.0
142
1.0
143
0.8557105178
 70
   688
 72
     1
 73
     1
 74
     1
  7

 75
     0
147
1.1686195029
148
109.9588068676
149
26.1826274553
100
AcDbLayout
  1
_Left
 70
     1
 71
     4
 10
0.0
 20
0.0
 11
0.0
 21
0.0
 12
0.0
 22
0.0
 32
0.0
 14
0.0
 24
0.0
 34
0.0
 15
0.0
 25
0.0
 35
0.0
146
0.0
 13
0.0
 23
0.0
 33
0.0
 16
1.0
 26
0.0
 36
0.0
 17
0.0
 27
1.0
 37
0.0
 76
     0
330
193
331
385
  0
LAYOUT
  5
1E
102
{ACAD_REACTORS
330
1A
102
}
330
1A
100
AcDbPlotSettings
  1

  2
none_device
  4
ISO_A4_(210.00_x_297.00_MM)
  6

 40
7.5
 41
20.0
 42
7.5
 43
20.0
 44
210.0
 45
297.0
 46
0.0
 47
0.0
 48
0.0
 49
0.0
140
0.0
141
0.0
142
1.0
143
0.8557105178
 70
   688
 72
     1
 73
     1
 74
     1
  7

 75
     0
147
1.1686195029
148
109.9588068676
149
26.1826274553
100
AcDbLayout
  1
_Top
 70
     1
 71
     1
 10
-127.0730172243
 20
-32.600456339
 11
127.0730065719
 21
147.0987524058
 12
0.0
 22
0.0
 32
0.0
 14
-109.9588068676
 24
-26.1826274553
 34
0.0
 15
109.9587962153
 25
0.0
 35
0.0
146
0.0
 13
0.0
 23
0.0
 33
0.0
 16
1.0
 26
0.0
 36
0.0
 17
0.0
 27
1.0
 37
0.0
 76
     0
330
1B
331
37F
  0
LAYOUT
  5
2A7
102
{ACAD_REACTORS
330
1A
102
}
330
1A
100
AcDbPlotSettings
  1

  2
none_device
  4
ISO_A4_(210.00_x_297.00_MM)
  6

 40
7.5
 41
20.0
 42
7.5
 43
20.0
 44
210.0
 45
297.0
 46
0.0
 47
0.0
 48
0.0
 49
0.0
140
0.0
141
0.0
142
1.0
143
0.8557105178
 70
   688
 72
     1
 73
     1
 74
     1
  7

 75
     0
147
1.1686195029
148
109.9588068676
149
26.1826274553
100
AcDbLayout
  1
_Trimetric
 70
     1
 71
     7
 10
0.0
 20
0.0
 11
0.0
 21
0.0
 12
0.0
 22
0.0
 32
0.0
 14
0.0
 24
0.0
 34
0.0
 15
0.0
 25
0.0
 35
0.0
146
0.0
 13
0.0
 23
0.0
 33
0.0
 16
1.0
 26
0.0
 36
0.0
 17
0.0
 27
1.0
 37
0.0
 76
     0
330
2A6
331
38B
  0
LAYOUT
  5
22
102
{ACAD_REACTORS
330
1A
102
}
330
1A
100
AcDbPlotSettings
  1

  2
none_device
  4
ANSI_A_(11.00_x_8.50_Inches)
  6

 40
6.35
 41
19.05
 42
6.35000508
 43
19.05000254
 44
279.4
 45
215.9
 46
235.6685515804
 47
81.6588342699
 48
0.0
 49
0.0
140
0.0
141
0.0
142
0.3077113161
143
1.0
 70
  1696
 72
     0
 73
     0
 74
     0
  7

 75
     0
147
0.0179189148
148
-1300.4909072572
149
0.0
100
AcDbLayout
  1
Model
 70
     1
 71
     0
 10
0.0
 20
0.0
 11
420.0
 21
297.0
 12
0.0
 22
0.0
 32
0.0
 14
-26.1822644902
 24
-12.7470605723
 34
0.0
 15
0.0
 25
14.6
 35
0.0
146
0.0
 13
0.0
 23
0.0
 33
0.0
 16
1.0
 26
0.0
 36
0.0
 17
0.0
 27
1.0
 37
0.0
 76
     0
330
1F
331
29
  0
MLINESTYLE
  5
18
102
{ACAD_REACTORS
330
17
102
}
330
17
100
AcDbMlineStyle
  2
Standard
 70
     0
  3

 62
   256
 51
90.0
 52
90.0
 71
     2
 49
0.5
 62
   256
  6
BYLAYER
 49
-0.5
 62
   256
  6
BYLAYER
  0
ACDBPLACEHOLDER
  5
F
102
{ACAD_REACTORS
330
E
102
}
330
E
  0
SCALE
  5
48
102
{ACAD_REACTORS
330
47
102
}
330
47
100
AcDbScale
 70
     0
300
1:1
140
1.0
141
1.0
290
     1
  0
SCALE
  5
49
102
{ACAD_REACTORS
330
47
102
}
330
47
100
AcDbScale
 70
     0
300
1:2
140
1.0
141
2.0
290
     0
  0
SCALE
  5
4A
102
{ACAD_REACTORS
330
47
102
}
330
47
100
AcDbScale
 70
     0
300
1:4
140
1.0
141
4.0
290
     0
  0
SCALE
  5
4B
102
{ACAD_REACTORS
330
47
102
}
330
47
100
AcDbScale
 70
     0
300
1:5
140
1.0
141
5.0
290
     0
  0
SCALE
  5
4C
102
{ACAD_REACTORS
330
47
102
}
330
47
100
AcDbScale
 70
     0
300
1:8
140
1.0
141
8.0
290
     0
  0
SCALE
  5
4D
102
{ACAD_REACTORS
330
47
102
}
330
47
100
AcDbScale
 70
     0
300
1:10
140
1.0
141
10.0
290
     0
  0
SCALE
  5
4E
102
{ACAD_REACTORS
330
47
102
}
330
47
100
AcDbScale
 70
     0
300
1:16
140
1.0
141
16.0
290
     0
  0
SCALE
  5
4F
102
{ACAD_REACTORS
330
47
102
}
330
47
100
AcDbScale
 70
     0
300
1:20
140
1.0
141
20.0
290
     0
  0
SCALE
  5
50
102
{ACAD_REACTORS
330
47
102
}
330
47
100
AcDbScale
 70
     0
300
1:30
140
1.0
141
30.0
290
     0
  0
SCALE
  5
51
102
{ACAD_REACTORS
330
47
102
}
330
47
100
AcDbScale
 70
     0
300
1:40
140
1.0
141
40.0
290
     0
  0
SCALE
  5
52
102
{ACAD_REACTORS
330
47
102
}
330
47
100
AcDbScale
 70
     0
300
1:50
140
1.0
141
50.0
290
     0
  0
SCALE
  5
53
102
{ACAD_REACTORS
330
47
102
}
330
47
100
AcDbScale
 70
     0
300
1:100
140
1.0
141
100.0
290
     0
  0
SCALE
  5
54
102
{ACAD_REACTORS
330
47
102
}
330
47
100
AcDbScale
 70
     0
300
2:1
140
2.0
141
1.0
290
     0
  0
SCALE
  5
55
102
{ACAD_REACTORS
330
47
102
}
330
47
100
AcDbScale
 70
     0
300
4:1
140
4.0
141
1.0
290
     0
  0
SCALE
  5
56
102
{ACAD_REACTORS
330
47
102
}
330
47
100
AcDbScale
 70
     0
300
8:1
140
8.0
141
1.0
290
     0
  0
SCALE
  5
57
102
{ACAD_REACTORS
330
47
102
}
330
47
100
AcDbScale
 70
     0
300
10:1
140
10.0
141
1.0
290
     0
  0
SCALE
  5
58
102
{ACAD_REACTORS
330
47
102
}
330
47
100
AcDbScale
 70
     0
300
100:1
140
100.0
141
1.0
290
     0
  0
SCALE
  5
59
102
{ACAD_REACTORS
330
47
102
}
330
47
100
AcDbScale
 70
     0
300
1/128" = 1'-0"
140
0.0078125
141
12.0
290
     0
  0
SCALE
  5
5A
102
{ACAD_REACTORS
330
47
102
}
330
47
100
AcDbScale
 70
     0
300
1/64" = 1'-0"
140
0.015625
141
12.0
290
     0
  0
SCALE
  5
5B
102
{ACAD_REACTORS
330
47
102
}
330
47
100
AcDbScale
 70
     0
300
1/32" = 1'-0"
140
0.03125
141
12.0
290
     0
  0
SCALE
  5
5C
102
{ACAD_REACTORS
330
47
102
}
330
47
100
AcDbScale
 70
     0
300
1/16" = 1'-0"
140
0.0625
141
12.0
290
     0
  0
SCALE
  5
5D
102
{ACAD_REACTORS
330
47
102
}
330
47
100
AcDbScale
 70
     0
300
3/32" = 1'-0"
140
0.09375
141
12.0
290
     0
  0
SCALE
  5
5E
102
{ACAD_REACTORS
330
47
102
}
330
47
100
AcDbScale
 70
     0
300
1/8" = 1'-0"
140
0.125
141
12.0
290
     0
  0
SCALE
  5
5F
102
{ACAD_REACTORS
330
47
102
}
330
47
100
AcDbScale
 70
     0
300
3/16" = 1'-0"
140
0.1875
141
12.0
290
     0
  0
SCALE
  5
60
102
{ACAD_REACTORS
330
47
102
}
330
47
100
AcDbScale
 70
     0
300
1/4" = 1'-0"
140
0.25
141
12.0
290
     0
  0
SCALE
  5
61
102
{ACAD_REACTORS
330
47
102
}
330
47
100
AcDbScale
 70
     0
300
3/8" = 1'-0"
140
0.375
141
12.0
290
     0
  0
SCALE
  5
62
102
{ACAD_REACTORS
330
47
102
}
330
47
100
AcDbScale
 70
     0
300
1/2" = 1'-0"
140
0.5
141
12.0
290
     0
  0
SCALE
  5
63
102
{ACAD_REACTORS
330
47
102
}
330
47
100
AcDbScale
 70
     0
300
3/4" = 1'-0"
140
0.75
141
12.0
290
     0
  0
SCALE
  5
64
102
{ACAD_REACTORS
330
47
102
}
330
47
100
AcDbScale
 70
     0
300
1" = 1'-0"
140
1.0
141
12.0
290
     0
  0
SCALE
  5
65
102
{ACAD_REACTORS
330
47
102
}
330
47
100
AcDbScale
 70
     0
300
1-1/2" = 1'-0"
140
1.5
141
12.0
290
     0
  0
SCALE
  5
66
102
{ACAD_REACTORS
330
47
102
}
330
47
100
AcDbScale
 70
     0
300
3" = 1'-0"
140
3.0
141
12.0
290
     0
  0
SCALE
  5
67
102
{ACAD_REACTORS
330
47
102
}
330
47
100
AcDbScale
 70
     0
300
6" = 1'-0"
140
6.0
141
12.0
290
     0
  0
SCALE
  5
68
102
{ACAD_REACTORS
330
47
102
}
330
47
100
AcDbScale
 70
     0
300
1'-0" = 1'-0"
140
12.0
141
12.0
290
     0
  0
ENDSEC
  0
EOF
